0
SECTION
2
HEADER
9
$EXTMIN
10
-329.770000
20
-211.960000
30
-481.400000
9
$EXTMAX
10
329.770000
20
211.960000
30
481.400000
9
$PDMODE
70
3
9
$PDSIZE
40
  0.80
0
ENDSEC
0
SECTION
2
TABLES
0
TABLE
2
LTYPE
70
10
0
LTYPE
2
CONTINUOUS
70
64
3
Continuous
72
65
73
0
40
0.0
0
LTYPE
2
DASHED
70
64
3
Dashed
72
65
73
2
40
2.5
49
1.25
49
-1.25
0
ENDTAB
0
TABLE
2
LAYER
70
10
0
LAYER
2
CentreLine
70
64
62
5
6
CONTINUOUS
0
LAYER
2
Stations
70
64
62
7
6
CONTINUOUS
0
LAYER
2
Labels
70
64
62
7
6
CONTINUOUS
0
LAYER
2
Surface
70
64
62
5
6
DASHED
0
LAYER
2
SurfaceStations
70
64
62
7
6
CONTINUOUS
0
LAYER
2
SurfaceLabels
70
64
62
7
6
CONTINUOUS
0
ENDTAB
0
ENDSEC
0
SECTION
2
ENTITIES
0
LINE
8
CentreLine
10
265.69
20
 18.66
30
351.04
11
262.56
21
 18.51
31
348.01
0
LINE
8
CentreLine
10
262.56
20
 18.51
30
348.01
11
259.41
21
 12.37
31
341.96
0
LINE
8
CentreLine
10
259.41
20
 12.37
30
341.96
11
262.43
21
 20.71
31
338.74
0
LINE
8
CentreLine
10
262.43
20
 20.71
30
338.74
11
262.47
21
 20.63
31
327.96
0
LINE
8
CentreLine
10
262.47
20
 20.63
30
327.96
11
270.92
21
 25.84
31
330.88
0
LINE
8
CentreLine
10
265.69
20
 18.66
30
351.04
11
280.28
21
  4.45
31
351.17
0
LINE
8
CentreLine
10
280.28
20
  4.45
30
351.17
11
275.86
21
 21.54
31
354.59
0
LINE
8
CentreLine
10
275.86
20
 21.54
30
354.59
11
274.79
21
 24.44
31
354.58
0
LINE
8
CentreLine
10
274.79
20
 24.44
30
354.58
11
274.64
21
 24.74
31
330.36
0
LINE
8
CentreLine
10
274.64
20
 24.74
30
330.36
11
270.92
21
 25.84
31
330.88
0
LINE
8
CentreLine
10
273.14
20
-66.68
30
167.30
11
271.04
21
-65.88
31
167.30
0
LINE
8
CentreLine
10
271.04
20
-65.88
30
167.30
11
271.04
21
-65.88
31
175.75
0
LINE
8
CentreLine
10
271.04
20
-65.88
30
175.75
11
271.04
21
-65.88
31
193.37
0
LINE
8
CentreLine
10
271.04
20
-65.88
30
193.37
11
271.66
21
-63.97
31
195.11
0
LINE
8
CentreLine
10
271.66
20
-63.97
30
195.11
11
273.44
21
-59.09
31
194.75
0
LINE
8
CentreLine
10
273.44
20
-59.09
30
194.75
11
268.54
21
-49.06
31
193.77
0
LINE
8
CentreLine
10
268.54
20
-49.06
30
193.77
11
268.54
21
-49.06
31
206.84
0
LINE
8
CentreLine
10
268.54
20
-49.06
30
206.84
11
266.64
21
-44.34
31
209.11
0
LINE
8
CentreLine
10
266.64
20
-44.34
30
209.11
11
266.27
21
-40.90
31
209.66
0
LINE
8
CentreLine
10
266.27
20
-40.90
30
209.66
11
267.24
21
-27.01
31
212.87
0
LINE
8
CentreLine
10
267.24
20
-27.01
30
212.87
11
268.28
21
-26.23
31
213.15
0
LINE
8
CentreLine
10
268.28
20
-26.23
30
213.15
11
267.01
21
-23.08
31
216.10
0
LINE
8
CentreLine
10
267.01
20
-23.08
30
216.10
11
271.96
21
-14.84
31
213.70
0
LINE
8
CentreLine
10
271.96
20
-14.84
30
213.70
11
271.96
21
-14.84
31
268.60
0
LINE
8
CentreLine
10
271.96
20
-14.84
30
268.60
11
273.85
21
-12.59
31
269.39
0
LINE
8
CentreLine
10
273.85
20
-12.59
30
269.39
11
272.39
21
-12.66
31
269.05
0
LINE
8
CentreLine
10
272.39
20
-12.66
30
269.05
11
272.53
21
 -9.62
31
272.31
0
LINE
8
CentreLine
10
272.53
20
 -9.62
30
272.31
11
271.71
21
 -1.86
31
274.55
0
LINE
8
CentreLine
10
271.71
20
 -1.86
30
274.55
11
273.94
21
 -4.52
31
286.66
0
LINE
8
CentreLine
10
273.94
20
 -4.52
30
286.66
11
274.79
21
 -1.12
31
299.72
0
LINE
8
CentreLine
10
274.79
20
 -1.12
30
299.72
11
277.52
21
  4.48
31
299.89
0
LINE
8
CentreLine
10
277.52
20
  4.48
30
299.89
11
277.52
21
  4.48
31
320.38
0
LINE
8
CentreLine
10
277.52
20
  4.48
30
320.38
11
275.31
21
 13.03
31
322.50
0
LINE
8
CentreLine
10
275.31
20
 13.03
30
322.50
11
274.97
21
 16.94
31
327.61
0
LINE
8
CentreLine
10
274.97
20
 16.94
30
327.61
11
273.07
21
 21.63
31
329.70
0
LINE
8
CentreLine
10
273.07
20
 21.63
30
329.70
11
270.92
21
 25.84
31
330.88
0
LINE
8
CentreLine
10
296.05
20
-75.48
30
129.91
11
284.78
21
-81.69
31
136.16
0
LINE
8
CentreLine
10
284.78
20
-81.69
30
136.16
11
283.34
21
-95.19
31
144.77
0
LINE
8
CentreLine
10
283.34
20
-95.19
30
144.77
11
281.28
21
-111.74
31
157.55
0
LINE
8
CentreLine
10
281.28
20
-111.74
30
157.55
11
289.27
21
-118.71
31
159.59
0
LINE
8
CentreLine
10
289.27
20
-118.71
30
159.59
11
316.95
21
-128.84
31
150.86
0
LINE
8
CentreLine
10
316.95
20
-128.84
30
150.86
11
329.77
21
-114.95
31
141.07
0
LINE
8
CentreLine
10
329.77
20
-114.95
30
141.07
11
320.15
21
-89.60
31
132.10
0
LINE
8
CentreLine
10
320.15
20
-89.60
30
132.10
11
320.17
21
-76.09
31
130.35
0
LINE
8
CentreLine
10
320.17
20
-76.09
30
130.35
11
319.38
21
-70.98
31
129.56
0
LINE
8
CentreLine
10
319.38
20
-70.98
30
129.56
11
308.95
21
-49.34
31
117.99
0
LINE
8
CentreLine
10
308.95
20
-49.34
30
117.99
11
308.39
21
-41.07
31
111.21
0
LINE
8
CentreLine
10
308.39
20
-41.07
30
111.21
11
294.72
21
-52.02
31
115.70
0
LINE
8
CentreLine
10
294.72
20
-52.02
30
115.70
11
291.77
21
-66.91
31
123.82
0
LINE
8
CentreLine
10
291.77
20
-66.91
30
123.82
11
296.05
21
-75.48
31
129.91
0
LINE
8
CentreLine
10
296.05
20
-75.48
30
129.91
11
277.34
21
-68.30
31
147.95
0
LINE
8
CentreLine
10
277.34
20
-68.30
30
147.95
11
273.14
21
-66.68
31
147.95
0
LINE
8
CentreLine
10
273.14
20
-66.68
30
147.95
11
273.14
21
-66.68
31
167.30
0
LINE
8
CentreLine
10
271.71
20
-66.93
30
119.35
11
273.14
21
-66.68
31
119.35
0
LINE
8
CentreLine
10
273.14
20
-66.68
30
119.35
11
273.14
21
-66.68
31
167.30
0
LINE
8
CentreLine
10
271.71
20
-66.93
30
119.35
11
262.77
21
-59.81
31
117.58
0
LINE
8
CentreLine
10
262.77
20
-59.81
30
117.58
11
261.42
21
-65.42
31
119.01
0
LINE
8
CentreLine
10
261.42
20
-65.42
30
119.01
11
254.76
21
-79.90
31
118.55
0
LINE
8
CentreLine
10
254.76
20
-79.90
30
118.55
11
258.19
21
-84.60
31
112.35
0
LINE
8
CentreLine
10
258.19
20
-84.60
30
112.35
11
258.02
21
-94.63
31
108.21
0
LINE
8
CentreLine
10
258.02
20
-94.63
30
108.21
11
267.31
21
-80.06
31
115.59
0
LINE
8
CentreLine
10
267.31
20
-80.06
30
115.59
11
270.06
21
-77.21
31
118.02
0
LINE
8
CentreLine
10
270.06
20
-77.21
30
118.02
11
273.96
21
-71.38
31
119.43
0
LINE
8
CentreLine
10
273.96
20
-71.38
30
119.43
11
271.71
21
-66.93
31
119.35
0
LINE
8
CentreLine
10
 79.29
20
 72.56
30
294.03
11
 79.29
21
 72.56
31
315.46
0
LINE
8
CentreLine
10
 79.29
20
 72.56
30
315.46
11
 77.91
21
 76.57
31
320.51
0
LINE
8
CentreLine
10
 77.91
20
 76.57
30
320.51
11
 78.11
21
 77.42
31
324.98
0
LINE
8
CentreLine
10
 78.11
20
 77.42
30
324.98
11
 77.28
21
 79.46
31
326.97
0
LINE
8
CentreLine
10
 77.28
20
 79.46
30
326.97
11
 75.09
21
 84.62
31
329.23
0
LINE
8
CentreLine
10
 75.09
20
 84.62
30
329.23
11
 77.71
21
 89.75
31
339.63
0
LINE
8
CentreLine
10
 77.71
20
 89.75
30
339.63
11
 80.41
21
 93.75
31
340.74
0
LINE
8
CentreLine
10
 80.41
20
 93.75
30
340.74
11
 80.58
21
 98.67
31
345.33
0
LINE
8
CentreLine
10
 80.58
20
 98.67
30
345.33
11
 82.52
21
 99.98
31
345.83
0
LINE
8
CentreLine
10
 82.52
20
 99.98
30
345.83
11
 80.32
21
103.01
31
346.49
0
LINE
8
CentreLine
10
 80.32
20
103.01
30
346.49
11
 81.31
21
104.15
31
347.04
0
LINE
8
CentreLine
10
 81.31
20
104.15
30
347.04
11
 83.07
21
106.40
31
348.19
0
LINE
8
CentreLine
10
 83.07
20
106.40
30
348.19
11
 85.03
21
104.69
31
347.92
0
LINE
8
CentreLine
10
 85.03
20
104.69
30
347.92
11
 90.66
21
106.97
31
349.32
0
LINE
8
CentreLine
10
 90.66
20
106.97
30
349.32
11
 92.36
21
105.33
31
350.13
0
LINE
8
CentreLine
10
 92.36
20
105.33
30
350.13
11
 93.33
21
108.96
31
351.28
0
LINE
8
CentreLine
10
 93.33
20
108.96
30
351.28
11
101.25
21
112.82
31
353.32
0
LINE
8
CentreLine
10
101.25
20
112.82
30
353.32
11
107.18
21
113.66
31
352.05
0
LINE
8
CentreLine
10
107.18
20
113.66
30
352.05
11
108.60
21
114.01
31
348.43
0
LINE
8
CentreLine
10
108.60
20
114.01
30
348.43
11
112.33
21
107.55
31
346.98
0
LINE
8
CentreLine
10
112.33
20
107.55
30
346.98
11
114.85
21
107.95
31
345.05
0
LINE
8
CentreLine
10
114.85
20
107.95
30
345.05
11
116.81
21
108.66
31
339.32
0
LINE
8
CentreLine
10
116.81
20
108.66
30
339.32
11
116.81
21
108.66
31
271.89
0
LINE
8
CentreLine
10
116.81
20
108.66
30
271.89
11
116.81
21
108.66
31
258.29
0
LINE
8
CentreLine
10
116.81
20
108.66
30
258.29
11
116.81
21
108.66
31
231.99
0
LINE
8
CentreLine
10
116.81
20
108.66
30
231.99
11
114.76
21
103.82
31
231.90
0
LINE
8
CentreLine
10
 79.29
20
 72.56
30
294.03
11
 85.90
21
 61.98
31
301.23
0
LINE
8
CentreLine
10
 85.90
20
 61.98
30
301.23
11
 84.28
21
 55.48
31
301.93
0
LINE
8
CentreLine
10
 84.28
20
 55.48
30
301.93
11
 87.33
21
 33.74
31
296.86
0
LINE
8
CentreLine
10
 87.33
20
 33.74
30
296.86
11
 97.54
21
 35.36
31
298.68
0
LINE
8
CentreLine
10
 97.54
20
 35.36
30
298.68
11
102.24
21
 23.12
31
295.90
0
LINE
8
CentreLine
10
102.24
20
 23.12
30
295.90
11
102.24
21
 23.12
31
296.90
0
LINE
8
CentreLine
10
102.24
20
 23.12
30
296.90
11
119.24
21
 12.90
31
298.63
0
LINE
8
CentreLine
10
119.24
20
 12.90
30
298.63
11
138.95
21
  5.34
31
301.60
0
LINE
8
CentreLine
10
138.95
20
  5.34
30
301.60
11
145.63
21
  1.16
31
301.46
0
LINE
8
CentreLine
10
145.63
20
  1.16
30
301.46
11
164.40
21
 -6.04
31
307.80
0
LINE
8
CentreLine
10
164.40
20
 -6.04
30
307.80
11
169.74
21
 -3.32
31
314.24
0
LINE
8
CentreLine
10
169.74
20
 -3.32
30
314.24
11
172.55
21
-13.80
31
314.81
0
LINE
8
CentreLine
10
172.55
20
-13.80
30
314.81
11
185.91
21
 -2.20
31
305.00
0
LINE
8
CentreLine
10
185.91
20
 -2.20
30
305.00
11
191.68
21
  0.37
31
309.10
0
LINE
8
CentreLine
10
191.68
20
  0.37
30
309.10
11
195.53
21
 10.42
31
313.23
0
LINE
8
CentreLine
10
195.53
20
 10.42
30
313.23
11
209.20
21
 22.31
31
322.46
0
LINE
8
CentreLine
10
209.20
20
 22.31
30
322.46
11
224.74
21
 32.39
31
335.43
0
LINE
8
CentreLine
10
224.74
20
 32.39
30
335.43
11
227.77
21
 34.85
31
339.19
0
LINE
8
CentreLine
10
227.77
20
 34.85
30
339.19
11
227.28
21
 41.88
31
341.08
0
LINE
8
CentreLine
10
227.28
20
 41.88
30
341.08
11
225.06
21
 45.71
31
340.62
0
LINE
8
CentreLine
10
225.06
20
 45.71
30
340.62
11
229.23
21
 42.90
31
343.64
0
LINE
8
CentreLine
10
229.23
20
 42.90
30
343.64
11
239.33
21
 41.66
31
346.18
0
LINE
8
CentreLine
10
239.33
20
 41.66
30
346.18
11
254.23
21
 35.64
31
351.40
0
LINE
8
CentreLine
10
254.23
20
 35.64
30
351.40
11
265.69
21
 18.66
31
351.04
0
LINE
8
CentreLine
10
-22.10
20
133.57
30
244.88
11
  5.41
21
134.53
31
251.23
0
LINE
8
CentreLine
10
  5.41
20
134.53
30
251.23
11
 14.38
21
133.11
31
257.36
0
LINE
8
CentreLine
10
 14.38
20
133.11
30
257.36
11
 14.38
21
133.11
31
255.86
0
LINE
8
CentreLine
10
 14.38
20
133.11
30
255.86
11
 23.31
21
125.63
31
264.96
0
LINE
8
CentreLine
10
 23.31
20
125.63
30
264.96
11
 15.85
21
115.73
31
272.41
0
LINE
8
CentreLine
10
 15.85
20
115.73
30
272.41
11
 36.04
21
116.09
31
277.81
0
LINE
8
CentreLine
10
 36.04
20
116.09
30
277.81
11
 58.54
21
 99.74
31
289.05
0
LINE
8
CentreLine
10
 58.54
20
 99.74
30
289.05
11
 57.42
21
 97.44
31
290.19
0
LINE
8
CentreLine
10
 57.42
20
 97.44
30
290.19
11
 73.23
21
 82.17
31
294.86
0
LINE
8
CentreLine
10
 73.23
20
 82.17
30
294.86
11
 71.90
21
 72.69
31
295.20
0
LINE
8
CentreLine
10
 71.90
20
 72.69
30
295.20
11
 79.29
21
 72.56
31
294.03
0
LINE
8
CentreLine
10
-56.40
20
121.63
30
222.88
11
-36.93
21
127.58
31
239.37
0
LINE
8
CentreLine
10
-36.93
20
127.58
30
239.37
11
-22.10
21
133.57
31
244.88
0
LINE
8
CentreLine
10
-56.40
20
121.63
30
222.88
11
-61.31
21
126.46
31
228.27
0
LINE
8
CentreLine
10
-61.31
20
126.46
30
228.27
11
-61.17
21
129.56
31
218.16
0
LINE
8
CentreLine
10
-61.17
20
129.56
30
218.16
11
-61.23
21
130.08
31
207.92
0
LINE
8
CentreLine
10
-61.23
20
130.08
30
207.92
11
-61.31
21
130.19
31
185.73
0
LINE
8
CentreLine
10
-61.31
20
130.19
30
185.73
11
-63.43
21
127.11
31
154.35
0
LINE
8
CentreLine
10
-63.43
20
127.11
30
154.35
11
-68.72
21
129.25
31
152.40
0
LINE
8
CentreLine
10
-68.72
20
129.25
30
152.40
11
-62.45
21
128.22
31
154.15
0
LINE
8
CentreLine
10
-62.45
20
128.22
30
154.15
11
-58.34
21
130.84
31
154.07
0
LINE
8
CentreLine
10
-58.34
20
130.84
30
154.07
11
-58.86
21
131.04
31
170.63
0
LINE
8
CentreLine
10
-58.86
20
131.04
30
170.63
11
-52.45
21
129.99
31
173.09
0
LINE
8
CentreLine
10
-52.45
20
129.99
30
173.09
11
-50.07
21
124.25
31
175.37
0
LINE
8
CentreLine
10
-50.07
20
124.25
30
175.37
11
-50.44
21
124.40
31
188.93
0
LINE
8
CentreLine
10
-50.44
20
124.40
30
188.93
11
-50.31
21
121.24
31
189.14
0
LINE
8
CentreLine
10
-50.31
20
121.24
30
189.14
11
-48.11
21
119.94
31
189.33
0
LINE
8
CentreLine
10
-48.11
20
119.94
30
189.33
11
-48.20
21
119.98
31
186.65
0
LINE
8
CentreLine
10
-48.20
20
119.98
30
186.65
11
-48.29
21
118.77
31
186.78
0
LINE
8
CentreLine
10
-48.29
20
118.77
30
186.78
11
-46.83
21
116.54
31
186.82
0
LINE
8
CentreLine
10
-46.83
20
116.54
30
186.82
11
-47.05
21
116.63
31
196.65
0
LINE
8
CentreLine
10
-47.05
20
116.63
30
196.65
11
-47.13
21
117.49
31
199.06
0
LINE
8
CentreLine
10
-47.13
20
117.49
30
199.06
11
-45.59
21
113.85
31
199.91
0
LINE
8
CentreLine
10
-45.59
20
113.85
30
199.91
11
-45.94
21
113.99
31
212.94
0
LINE
8
CentreLine
10
-45.94
20
113.99
30
212.94
11
-45.57
21
115.27
31
216.82
0
LINE
8
CentreLine
10
-45.57
20
115.27
30
216.82
11
-44.54
21
116.65
31
217.27
0
LINE
8
CentreLine
10
-44.54
20
116.65
30
217.27
11
-48.95
21
120.22
31
222.26
0
LINE
8
CentreLine
10
-48.95
20
120.22
30
222.26
11
-56.40
21
121.63
31
222.88
0
LINE
8
CentreLine
10
-199.75
20
-69.84
30
-254.82
11
-201.92
21
-74.11
31
-257.66
0
LINE
8
CentreLine
10
-201.92
20
-74.11
30
-257.66
11
-205.60
21
-77.54
31
-259.87
0
LINE
8
CentreLine
10
-205.60
20
-77.54
30
-259.87
11
-210.83
21
-81.35
31
-264.07
0
LINE
8
CentreLine
10
-210.83
20
-81.35
30
-264.07
11
-211.92
21
-82.38
31
-267.03
0
LINE
8
CentreLine
10
-211.92
20
-82.38
30
-267.03
11
-213.25
21
-82.54
31
-269.43
0
LINE
8
CentreLine
10
-213.25
20
-82.54
30
-269.43
11
-215.91
21
-80.93
31
-270.54
0
LINE
8
CentreLine
10
-215.91
20
-80.93
30
-270.54
11
-217.72
21
-76.00
31
-268.14
0
LINE
8
CentreLine
10
-217.72
20
-76.00
30
-268.14
11
-217.74
21
-75.87
31
-267.79
0
LINE
8
CentreLine
10
-217.74
20
-75.87
30
-267.79
11
-214.94
21
-76.36
31
-263.77
0
LINE
8
CentreLine
10
-214.94
20
-76.36
30
-263.77
11
-217.07
21
-68.63
31
-261.61
0
LINE
8
CentreLine
10
-217.07
20
-68.63
30
-261.61
11
-210.81
21
-63.14
31
-255.44
0
LINE
8
CentreLine
10
-210.81
20
-63.14
30
-255.44
11
-211.03
21
-69.10
31
-254.45
0
LINE
8
CentreLine
10
-211.03
20
-69.10
30
-254.45
11
-206.01
21
-71.20
31
-254.09
0
LINE
8
CentreLine
10
-206.01
20
-71.20
30
-254.09
11
-201.48
21
-71.89
31
-253.30
0
LINE
8
CentreLine
10
-201.48
20
-71.89
30
-253.30
11
-201.50
21
-71.75
31
-255.90
0
LINE
8
CentreLine
10
-201.50
20
-71.75
30
-255.90
11
-199.75
21
-69.84
31
-254.82
0
LINE
8
CentreLine
10
-199.75
20
-69.84
30
-254.82
11
-197.39
21
-66.20
31
-251.55
0
LINE
8
CentreLine
10
-197.39
20
-66.20
30
-251.55
11
-196.30
21
-65.49
31
-252.86
0
LINE
8
CentreLine
10
-196.30
20
-65.49
30
-252.86
11
-193.62
21
-64.13
31
-251.58
0
LINE
8
CentreLine
10
-193.62
20
-64.13
30
-251.58
11
-190.06
21
-61.64
31
-245.82
0
LINE
8
CentreLine
10
-190.06
20
-61.64
30
-245.82
11
-187.35
21
-61.64
31
-245.04
0
LINE
8
CentreLine
10
-187.35
20
-61.64
30
-245.04
11
-184.15
21
-63.80
31
-244.15
0
LINE
8
CentreLine
10
-184.15
20
-63.80
30
-244.15
11
-179.92
21
-63.36
31
-238.70
0
LINE
8
CentreLine
10
-179.92
20
-63.36
30
-238.70
11
-176.02
21
-64.33
31
-237.70
0
LINE
8
CentreLine
10
-176.02
20
-64.33
30
-237.70
11
-173.72
21
-57.65
31
-226.39
0
LINE
8
CentreLine
10
-173.72
20
-57.65
30
-226.39
11
-167.38
21
-52.14
31
-204.53
0
LINE
8
CentreLine
10
-167.38
20
-52.14
30
-204.53
11
-164.00
21
-50.98
31
-195.67
0
LINE
8
CentreLine
10
-164.00
20
-50.98
30
-195.67
11
-162.11
21
-51.45
31
-192.00
0
LINE
8
CentreLine
10
-162.11
20
-51.45
30
-192.00
11
-159.55
21
-50.86
31
-191.44
0
LINE
8
CentreLine
10
-159.55
20
-50.86
30
-191.44
11
-157.69
21
-55.71
31
-191.44
0
LINE
8
CentreLine
10
-157.69
20
-55.71
30
-191.44
11
-155.72
21
-59.27
31
-190.94
0
LINE
8
CentreLine
10
-155.72
20
-59.27
30
-190.94
11
-155.35
21
-61.60
31
-190.49
0
LINE
8
CentreLine
10
-155.35
20
-61.60
30
-190.49
11
-153.28
21
-62.27
31
-190.22
0
LINE
8
CentreLine
10
-153.28
20
-62.27
30
-190.22
11
-151.12
21
-66.01
31
-189.92
0
LINE
8
CentreLine
10
-151.12
20
-66.01
30
-189.92
11
-150.84
21
-67.62
31
-189.95
0
LINE
8
CentreLine
10
-150.84
20
-67.62
30
-189.95
11
-148.45
21
-67.78
31
-189.78
0
LINE
8
CentreLine
10
-148.45
20
-67.78
30
-189.78
11
-144.85
21
-69.70
31
-189.71
0
LINE
8
CentreLine
10
-144.85
20
-69.70
30
-189.71
11
-142.15
21
-70.73
31
-189.61
0
LINE
8
CentreLine
10
-142.15
20
-70.73
30
-189.61
11
-142.08
21
-74.59
31
-189.06
0
LINE
8
CentreLine
10
-142.08
20
-74.59
30
-189.06
11
-138.55
21
-75.09
31
-187.90
0
LINE
8
CentreLine
10
-138.55
20
-75.09
30
-187.90
11
-136.01
21
-72.72
31
-187.90
0
LINE
8
CentreLine
10
-136.01
20
-72.72
30
-187.90
11
-133.93
21
-73.88
31
-187.70
0
LINE
8
CentreLine
10
-133.93
20
-73.88
30
-187.70
11
-127.00
21
-69.54
31
-179.80
0
LINE
8
CentreLine
10
-127.00
20
-69.54
30
-179.80
11
-126.28
21
-69.63
31
-179.45
0
LINE
8
CentreLine
10
-126.28
20
-69.63
30
-179.45
11
-120.59
21
-68.32
31
-174.55
0
LINE
8
CentreLine
10
-120.59
20
-68.32
30
-174.55
11
-117.53
21
-62.56
31
-169.27
0
LINE
8
CentreLine
10
-117.53
20
-62.56
30
-169.27
11
-113.59
21
-58.62
31
-168.29
0
LINE
8
CentreLine
10
-113.59
20
-58.62
30
-168.29
11
-109.21
21
-64.23
31
-166.11
0
LINE
8
CentreLine
10
-109.21
20
-64.23
30
-166.11
11
-107.61
21
-70.64
31
-165.77
0
LINE
8
CentreLine
10
-107.61
20
-70.64
30
-165.77
11
-107.61
21
-70.64
31
-160.72
0
LINE
8
CentreLine
10
-107.61
20
-70.64
30
-160.72
11
-108.32
21
-67.33
31
-159.35
0
LINE
8
CentreLine
10
-108.32
20
-67.33
30
-159.35
11
-111.70
21
-63.83
31
-158.22
0
LINE
8
CentreLine
10
-111.70
20
-63.83
30
-158.22
11
-110.43
21
-58.33
31
-161.75
0
LINE
8
CentreLine
10
-110.43
20
-58.33
30
-161.75
11
-110.43
21
-58.33
31
-140.85
0
LINE
8
CentreLine
10
-110.43
20
-58.33
30
-140.85
11
-113.56
21
-52.91
31
-123.65
0
LINE
8
CentreLine
10
-113.56
20
-52.91
30
-123.65
11
-113.56
21
-52.91
31
-119.45
0
LINE
8
CentreLine
10
-113.56
20
-52.91
30
-119.45
11
-115.05
21
-51.98
31
-119.54
0
LINE
8
CentreLine
10
-115.05
20
-51.98
30
-119.54
11
-114.02
21
-46.70
31
-121.29
0
LINE
8
CentreLine
10
-114.02
20
-46.70
30
-121.29
11
-113.87
21
-43.81
31
-121.54
0
LINE
8
CentreLine
10
-113.87
20
-43.81
30
-121.54
11
-112.51
21
-42.44
31
-121.71
0
LINE
8
CentreLine
10
-112.51
20
-42.44
30
-121.71
11
-115.68
21
-40.14
31
-121.85
0
LINE
8
CentreLine
10
-115.68
20
-40.14
30
-121.85
11
-114.60
21
-33.27
31
-122.83
0
LINE
8
CentreLine
10
-114.60
20
-33.27
30
-122.83
11
-117.61
21
-28.45
31
-123.73
0
LINE
8
CentreLine
10
-117.61
20
-28.45
30
-123.73
11
-121.40
21
-28.11
31
-125.04
0
LINE
8
CentreLine
10
-121.40
20
-28.11
30
-125.04
11
-123.19
21
-26.25
31
-123.89
0
LINE
8
CentreLine
10
-123.19
20
-26.25
30
-123.89
11
-126.13
21
-27.56
31
-125.60
0
LINE
8
CentreLine
10
-126.13
20
-27.56
30
-125.60
11
-130.84
21
-26.90
31
-126.52
0
LINE
8
CentreLine
10
-130.84
20
-26.90
30
-126.52
11
-133.62
21
-28.64
31
-127.16
0
LINE
8
CentreLine
10
-133.62
20
-28.64
30
-127.16
11
-131.51
21
-21.26
31
-125.80
0
LINE
8
CentreLine
10
-131.51
20
-21.26
30
-125.80
11
-129.57
21
-16.70
31
-126.15
0
LINE
8
CentreLine
10
-129.57
20
-16.70
30
-126.15
11
-123.40
21
-17.14
31
-124.83
0
LINE
8
CentreLine
10
-123.40
20
-17.14
30
-124.83
11
-123.40
21
-17.14
31
-122.28
0
LINE
8
CentreLine
10
-123.40
20
-17.14
30
-122.28
11
-120.71
21
-15.52
31
-121.95
0
LINE
8
CentreLine
10
-120.71
20
-15.52
30
-121.95
11
-115.03
21
-18.05
31
-120.97
0
LINE
8
CentreLine
10
-115.03
20
-18.05
30
-120.97
11
-114.48
21
-19.17
31
-120.73
0
LINE
8
CentreLine
10
-114.48
20
-19.17
30
-120.73
11
-114.66
21
-20.64
31
-120.70
0
LINE
8
CentreLine
10
-114.66
20
-20.64
30
-120.70
11
-110.88
21
-24.42
31
-116.96
0
LINE
8
CentreLine
10
-110.88
20
-24.42
30
-116.96
11
-110.14
21
-26.27
31
-118.21
0
LINE
8
CentreLine
10
-110.14
20
-26.27
30
-118.21
11
-107.48
21
-26.17
31
-116.97
0
LINE
8
CentreLine
10
-107.48
20
-26.17
30
-116.97
11
-105.21
21
-26.74
31
-116.43
0
LINE
8
CentreLine
10
-105.21
20
-26.74
30
-116.43
11
-103.20
21
-26.35
31
-115.64
0
LINE
8
CentreLine
10
-103.20
20
-26.35
30
-115.64
11
-97.87
21
-21.38
31
-115.64
0
LINE
8
CentreLine
10
-97.87
20
-21.38
30
-115.64
11
-97.59
21
-20.08
31
-112.80
0
LINE
8
CentreLine
10
-97.59
20
-20.08
30
-112.80
11
-99.01
21
-11.13
31
-111.85
0
LINE
8
CentreLine
10
-99.01
20
-11.13
30
-111.85
11
-99.01
21
-11.13
31
-110.35
0
LINE
8
CentreLine
10
-99.01
20
-11.13
30
-110.35
11
-88.68
21
 -7.38
31
-103.48
0
LINE
8
CentreLine
10
-88.68
20
 -7.38
30
-103.48
11
-87.42
21
 -8.17
31
-102.55
0
LINE
8
CentreLine
10
-87.42
20
 -8.17
30
-102.55
11
-88.46
21
-11.19
31
-100.31
0
LINE
8
CentreLine
10
-88.46
20
-11.19
30
-100.31
11
-91.33
21
-23.65
31
-100.54
0
LINE
8
CentreLine
10
-91.33
20
-23.65
30
-100.54
11
-92.08
21
-26.27
31
-100.49
0
LINE
8
CentreLine
10
-92.08
20
-26.27
30
-100.49
11
-92.97
21
-38.87
31
-101.15
0
LINE
8
CentreLine
10
-92.97
20
-38.87
30
-101.15
11
-86.04
21
-33.06
31
-101.15
0
LINE
8
CentreLine
10
-86.04
20
-33.06
30
-101.15
11
-86.04
21
-33.06
31
-93.70
0
LINE
8
CentreLine
10
-86.04
20
-33.06
30
-93.70
11
-89.59
21
-31.91
31
-95.13
0
LINE
8
CentreLine
10
-89.59
20
-31.91
30
-95.13
11
-96.03
21
-20.75
31
-94.46
0
LINE
8
CentreLine
10
-96.03
20
-20.75
30
-94.46
11
-96.03
21
-20.75
31
-87.86
0
LINE
8
CentreLine
10
-96.03
20
-20.75
30
-87.86
11
-96.97
21
-17.47
31
-85.38
0
LINE
8
CentreLine
10
-96.97
20
-17.47
30
-85.38
11
-91.04
21
-15.99
31
-85.59
0
LINE
8
CentreLine
10
-91.04
20
-15.99
30
-85.59
11
-93.41
21
-10.42
31
-83.86
0
LINE
8
CentreLine
10
-93.41
20
-10.42
30
-83.86
11
-97.38
21
 -2.95
31
-80.78
0
LINE
8
CentreLine
10
-97.38
20
 -2.95
30
-80.78
11
-97.38
21
 -2.95
31
-70.06
0
LINE
8
CentreLine
10
-97.38
20
 -2.95
30
-70.06
11
-97.52
21
 -0.27
31
-67.89
0
LINE
8
CentreLine
10
-97.52
20
 -0.27
30
-67.89
11
-104.30
21
  5.03
31
-68.49
0
LINE
8
CentreLine
10
-104.30
20
  5.03
30
-68.49
11
-104.30
21
  5.03
31
-58.19
0
LINE
8
CentreLine
10
-104.30
20
  5.03
30
-58.19
11
-107.37
21
  5.19
31
-57.70
0
LINE
8
CentreLine
10
-107.37
20
  5.19
30
-57.70
11
-109.70
21
 11.28
31
-57.82
0
LINE
8
CentreLine
10
-109.70
20
 11.28
30
-57.82
11
-99.67
21
 21.66
31
-60.62
0
LINE
8
CentreLine
10
-99.67
20
 21.66
30
-60.62
11
-90.26
21
 20.00
31
-58.76
0
LINE
8
CentreLine
10
-90.26
20
 20.00
30
-58.76
11
-91.81
21
 29.81
31
-58.76
0
LINE
8
CentreLine
10
-91.81
20
 29.81
30
-58.76
11
-94.91
21
 37.11
31
-58.76
0
LINE
8
CentreLine
10
-94.91
20
 37.11
30
-58.76
11
-93.93
21
 40.78
31
-57.75
0
LINE
8
CentreLine
10
-93.93
20
 40.78
30
-57.75
11
-93.93
21
 40.78
31
-54.12
0
LINE
8
CentreLine
10
-93.93
20
 40.78
30
-54.12
11
-96.29
21
 43.91
31
-50.46
0
LINE
8
CentreLine
10
-96.29
20
 43.91
30
-50.46
11
-99.93
21
 50.49
31
-52.06
0
LINE
8
CentreLine
10
-99.93
20
 50.49
30
-52.06
11
-99.93
21
 50.49
31
-21.66
0
LINE
8
CentreLine
10
-99.93
20
 50.49
30
-21.66
11
-99.27
21
 52.51
31
-15.10
0
LINE
8
CentreLine
10
-99.27
20
 52.51
30
-15.10
11
-97.62
21
 57.61
31
-10.76
0
LINE
8
CentreLine
10
-97.62
20
 57.61
30
-10.76
11
-97.53
21
 62.61
31
 -8.74
0
LINE
8
CentreLine
10
-97.53
20
 62.61
30
 -8.74
11
-99.96
21
 63.69
31
 -7.08
0
LINE
8
CentreLine
10
-99.96
20
 63.69
30
 -7.08
11
-99.76
21
 67.50
31
 -6.74
0
LINE
8
CentreLine
10
-99.76
20
 67.50
30
 -6.74
11
-96.34
21
 73.18
31
 -5.81
0
LINE
8
CentreLine
10
-96.34
20
 73.18
30
 -5.81
11
-96.14
21
 78.93
31
 -3.49
0
LINE
8
CentreLine
10
-96.14
20
 78.93
30
 -3.49
11
-98.09
21
 82.17
31
 15.96
0
LINE
8
CentreLine
10
-98.09
20
 82.17
30
 15.96
11
-99.27
21
 84.60
31
 16.68
0
LINE
8
CentreLine
10
-99.27
20
 84.60
30
 16.68
11
-102.70
21
 82.93
31
 19.35
0
LINE
8
CentreLine
10
-102.70
20
 82.93
30
 19.35
11
-105.49
21
 88.18
31
 30.07
0
LINE
8
CentreLine
10
-105.49
20
 88.18
30
 30.07
11
-107.04
21
 92.23
31
 29.76
0
LINE
8
CentreLine
10
-107.04
20
 92.23
30
 29.76
11
-99.57
21
 89.80
31
 31.29
0
LINE
8
CentreLine
10
-99.57
20
 89.80
30
 31.29
11
-94.39
21
 88.70
31
 31.10
0
LINE
8
CentreLine
10
-94.39
20
 88.70
30
 31.10
11
-93.34
21
 92.93
31
 39.30
0
LINE
8
CentreLine
10
-93.34
20
 92.93
30
 39.30
11
-91.60
21
 95.23
31
 41.80
0
LINE
8
CentreLine
10
-91.60
20
 95.23
30
 41.80
11
-93.83
21
100.61
31
 40.83
0
LINE
8
CentreLine
10
-93.83
20
100.61
30
 40.83
11
-93.83
21
100.61
31
 68.02
0
LINE
8
CentreLine
10
-93.83
20
100.61
30
 68.02
11
-93.83
21
100.61
31
 77.31
0
LINE
8
CentreLine
10
-93.83
20
100.61
30
 77.31
11
-93.83
21
100.61
31
 79.53
0
LINE
8
CentreLine
10
-93.83
20
100.61
30
 79.53
11
-93.83
21
100.61
31
102.83
0
LINE
8
CentreLine
10
-93.83
20
100.61
30
102.83
11
-93.83
21
100.61
31
114.74
0
LINE
8
CentreLine
10
-93.83
20
100.61
30
114.74
11
-93.83
21
100.61
31
133.52
0
LINE
8
CentreLine
10
-93.83
20
100.61
30
133.52
11
-95.51
21
102.10
31
134.21
0
LINE
8
CentreLine
10
-95.51
20
102.10
30
134.21
11
-94.11
21
100.79
31
136.57
0
LINE
8
CentreLine
10
-94.11
20
100.79
30
136.57
11
-95.75
21
100.10
31
138.17
0
LINE
8
CentreLine
10
-95.75
20
100.10
30
138.17
11
-95.97
21
101.68
31
140.22
0
LINE
8
CentreLine
10
-95.97
20
101.68
30
140.22
11
-94.42
21
111.49
31
144.43
0
LINE
8
CentreLine
10
-94.42
20
111.49
30
144.43
11
-95.73
21
117.16
31
143.09
0
LINE
8
CentreLine
10
-95.73
20
117.16
30
143.09
11
-97.26
21
126.85
31
150.21
0
LINE
8
CentreLine
10
-97.26
20
126.85
30
150.21
11
-97.54
21
130.78
31
151.34
0
LINE
8
CentreLine
10
-97.54
20
130.78
30
151.34
11
-97.54
21
130.78
31
194.73
0
LINE
8
CentreLine
10
-97.54
20
130.78
30
194.73
11
-98.30
21
130.44
31
194.90
0
LINE
8
CentreLine
10
-98.30
20
130.44
30
194.90
11
-99.40
21
134.87
31
197.12
0
LINE
8
CentreLine
10
-99.40
20
134.87
30
197.12
11
-103.33
21
136.30
31
197.56
0
LINE
8
CentreLine
10
-103.33
20
136.30
30
197.56
11
-101.76
21
138.81
31
197.67
0
LINE
8
CentreLine
10
-101.76
20
138.81
30
197.67
11
-97.77
21
138.60
31
198.30
0
LINE
8
CentreLine
10
-97.77
20
138.60
30
198.30
11
-96.24
21
135.83
31
199.32
0
LINE
8
CentreLine
10
-96.24
20
135.83
30
199.32
11
-96.73
21
135.03
31
200.20
0
LINE
8
CentreLine
10
-96.73
20
135.03
30
200.20
11
-95.53
21
132.05
31
199.64
0
LINE
8
CentreLine
10
-95.53
20
132.05
30
199.64
11
-86.50
21
131.10
31
196.69
0
LINE
8
CentreLine
10
-86.50
20
131.10
30
196.69
11
-97.74
21
117.71
31
210.34
0
LINE
8
CentreLine
10
-97.74
20
117.71
30
210.34
11
-78.74
21
111.54
31
205.36
0
LINE
8
CentreLine
10
-78.74
20
111.54
30
205.36
11
-69.48
21
100.11
31
219.08
0
LINE
8
CentreLine
10
-69.48
20
100.11
30
219.08
11
-55.12
21
119.87
31
229.45
0
LINE
8
CentreLine
10
-55.12
20
119.87
30
229.45
11
-44.46
21
123.75
31
236.00
0
LINE
8
CentreLine
10
-44.46
20
123.75
30
236.00
11
-33.47
21
132.98
31
244.28
0
LINE
8
CentreLine
10
-33.47
20
132.98
30
244.28
11
-22.10
21
133.57
31
244.88
0
LINE
8
CentreLine
10
108.60
20
114.01
30
348.43
11
 94.67
21
129.48
31
350.25
0
LINE
8
CentreLine
10
 94.67
20
129.48
30
350.25
11
100.02
21
131.97
31
350.25
0
LINE
8
CentreLine
10
100.02
20
131.97
30
350.25
11
100.02
21
131.97
31
354.15
0
LINE
8
CentreLine
10
100.02
20
131.97
30
354.15
11
 97.96
21
131.42
31
352.66
0
LINE
8
CentreLine
10
 97.96
20
131.42
30
352.66
11
 97.21
21
135.66
31
352.66
0
LINE
8
CentreLine
10
 97.21
20
135.66
30
352.66
11
 97.21
21
135.66
31
367.86
0
LINE
8
CentreLine
10
 97.21
20
135.66
30
367.86
11
 99.39
21
136.45
31
368.48
0
LINE
8
CentreLine
10
 99.39
20
136.45
30
368.48
11
101.46
21
135.26
31
368.69
0
LINE
8
CentreLine
10
101.46
20
135.26
30
368.69
11
102.29
21
135.73
31
368.14
0
LINE
8
CentreLine
10
102.29
20
135.73
30
368.14
11
104.15
21
137.59
31
369.10
0
LINE
8
CentreLine
10
104.15
20
137.59
30
369.10
11
105.06
21
136.28
31
369.10
0
LINE
8
CentreLine
10
105.06
20
136.28
30
369.10
11
106.57
21
136.83
31
369.10
0
LINE
8
CentreLine
10
106.57
20
136.83
30
369.10
11
107.77
21
135.98
31
368.25
0
LINE
8
CentreLine
10
107.77
20
135.98
30
368.25
11
109.70
21
136.50
31
366.58
0
LINE
8
CentreLine
10
109.70
20
136.50
30
366.58
11
111.90
21
134.96
31
366.81
0
LINE
8
CentreLine
10
111.90
20
134.96
30
366.81
11
111.90
21
134.96
31
372.51
0
LINE
8
CentreLine
10
111.90
20
134.96
30
372.51
11
116.57
21
131.04
31
372.51
0
LINE
8
CentreLine
10
116.57
20
131.04
30
372.51
11
118.41
21
133.22
31
373.02
0
LINE
8
CentreLine
10
118.41
20
133.22
30
373.02
11
120.19
21
134.06
31
373.36
0
LINE
8
CentreLine
10
120.19
20
134.06
30
373.36
11
124.41
21
137.35
31
370.87
0
LINE
8
CentreLine
10
124.41
20
137.35
30
370.87
11
124.41
21
137.35
31
368.77
0
LINE
8
CentreLine
10
124.41
20
137.35
30
368.77
11
127.79
21
136.12
31
368.77
0
LINE
8
CentreLine
10
127.79
20
136.12
30
368.77
11
127.79
21
136.12
31
374.17
0
LINE
8
CentreLine
10
127.79
20
136.12
30
374.17
11
129.30
21
134.19
31
374.17
0
LINE
8
CentreLine
10
129.30
20
134.19
30
374.17
11
129.24
21
133.53
31
375.57
0
LINE
8
CentreLine
10
129.24
20
133.53
30
375.57
11
127.83
21
127.88
31
376.50
0
LINE
8
CentreLine
10
127.83
20
127.88
30
376.50
11
128.39
21
130.11
31
376.50
0
LINE
8
CentreLine
10
128.39
20
130.11
30
376.50
11
128.39
21
130.11
31
383.90
0
LINE
8
CentreLine
10
128.39
20
130.11
30
383.90
11
126.81
21
131.64
31
383.90
0
LINE
8
CentreLine
10
126.81
20
131.64
30
383.90
11
126.81
21
131.64
31
388.70
0
LINE
8
CentreLine
10
126.81
20
131.64
30
388.70
11
129.01
21
133.63
31
390.55
0
LINE
8
CentreLine
10
129.01
20
133.63
30
390.55
11
128.16
21
135.97
31
391.82
0
LINE
8
CentreLine
10
128.16
20
135.97
30
391.82
11
132.35
21
138.49
31
394.76
0
LINE
8
CentreLine
10
132.35
20
138.49
30
394.76
11
131.82
21
140.02
31
394.23
0
LINE
8
CentreLine
10
131.82
20
140.02
30
394.23
11
133.59
21
141.55
31
393.69
0
LINE
8
CentreLine
10
133.59
20
141.55
30
393.69
11
134.86
21
141.14
31
394.37
0
LINE
8
CentreLine
10
134.86
20
141.14
30
394.37
11
135.04
21
143.77
31
394.19
0
LINE
8
CentreLine
10
135.04
20
143.77
30
394.19
11
136.79
21
143.59
31
396.62
0
LINE
8
CentreLine
10
136.79
20
143.59
30
396.62
11
138.16
21
144.86
31
397.33
0
LINE
8
CentreLine
10
138.16
20
144.86
30
397.33
11
140.02
21
143.35
31
399.14
0
LINE
8
CentreLine
10
140.02
20
143.35
30
399.14
11
140.84
21
143.56
31
399.02
0
LINE
8
CentreLine
10
140.84
20
143.56
30
399.02
11
145.07
21
143.04
31
397.30
0
LINE
8
CentreLine
10
145.07
20
143.04
30
397.30
11
145.46
21
140.82
31
403.18
0
LINE
8
CentreLine
10
145.46
20
140.82
30
403.18
11
146.09
21
138.50
31
403.18
0
LINE
8
CentreLine
10
146.09
20
138.50
30
403.18
11
149.32
21
139.81
31
403.42
0
LINE
8
CentreLine
10
149.32
20
139.81
30
403.42
11
152.68
21
139.57
31
402.46
0
LINE
8
CentreLine
10
152.68
20
139.57
30
402.46
11
152.68
21
139.57
31
405.86
0
LINE
8
CentreLine
10
152.68
20
139.57
30
405.86
11
154.12
21
140.83
31
407.47
0
LINE
8
CentreLine
10
154.12
20
140.83
30
407.47
11
155.17
21
141.01
31
409.10
0
LINE
8
CentreLine
10
155.17
20
141.01
30
409.10
11
156.77
21
142.40
31
408.20
0
LINE
8
CentreLine
10
156.77
20
142.40
30
408.20
11
156.03
21
143.45
31
407.43
0
LINE
8
CentreLine
10
156.03
20
143.45
30
407.43
11
157.39
21
144.56
31
406.57
0
LINE
8
CentreLine
10
157.39
20
144.56
30
406.57
11
159.29
21
147.17
31
407.26
0
LINE
8
CentreLine
10
159.29
20
147.17
30
407.26
11
159.29
21
147.17
31
415.06
0
LINE
8
CentreLine
10
159.29
20
147.17
30
415.06
11
163.01
21
147.17
31
412.91
0
LINE
8
CentreLine
10
163.01
20
147.17
30
412.91
11
164.94
21
149.47
31
412.91
0
LINE
8
CentreLine
10
164.94
20
149.47
30
412.91
11
167.03
21
149.47
31
413.09
0
LINE
8
CentreLine
10
167.03
20
149.47
30
413.09
11
169.96
21
150.83
31
412.41
0
LINE
8
CentreLine
10
169.96
20
150.83
30
412.41
11
172.31
21
150.79
31
411.55
0
LINE
8
CentreLine
10
172.31
20
150.79
30
411.55
11
172.31
21
150.79
31
414.55
0
LINE
8
CentreLine
10
172.31
20
150.79
30
414.55
11
174.95
21
150.28
31
414.79
0
LINE
8
CentreLine
10
174.95
20
150.28
30
414.79
11
173.08
21
152.02
31
414.29
0
LINE
8
CentreLine
10
174.95
20
150.28
30
414.79
11
177.25
21
150.36
31
414.79
0
LINE
8
CentreLine
10
177.25
20
150.36
30
414.79
11
177.25
21
150.36
31
422.29
0
LINE
8
CentreLine
10
177.25
20
150.36
30
422.29
11
179.66
21
151.00
31
422.29
0
LINE
8
CentreLine
10
179.66
20
151.00
30
422.29
11
179.66
21
151.00
31
428.69
0
LINE
8
CentreLine
10
179.66
20
151.00
30
428.69
11
179.66
21
151.00
31
430.19
0
LINE
8
CentreLine
10
179.66
20
151.00
30
430.19
11
182.68
21
149.53
31
429.66
0
LINE
8
CentreLine
10
182.68
20
149.53
30
429.66
11
184.97
21
149.45
31
429.86
0
LINE
8
CentreLine
10
184.97
20
149.45
30
429.86
11
184.97
21
149.45
31
426.46
0
LINE
8
CentreLine
10
184.97
20
149.45
30
426.46
11
190.33
21
149.17
31
429.56
0
LINE
8
CentreLine
10
190.33
20
149.17
30
429.56
11
191.62
21
147.64
31
429.56
0
LINE
8
CentreLine
10
191.62
20
147.64
30
429.56
11
191.62
21
147.64
31
454.36
0
LINE
8
CentreLine
10
191.62
20
147.64
30
454.36
11
192.42
21
148.66
31
454.36
0
LINE
8
CentreLine
10
192.42
20
148.66
30
454.36
11
192.85
21
147.33
31
454.36
0
LINE
8
CentreLine
10
192.85
20
147.33
30
454.36
11
197.33
21
147.25
31
456.08
0
LINE
8
CentreLine
10
197.33
20
147.25
30
456.08
11
195.33
21
147.29
31
456.08
0
LINE
8
CentreLine
10
195.33
20
147.29
30
456.08
11
195.33
21
147.29
31
464.58
0
LINE
8
CentreLine
10
195.33
20
147.29
30
464.58
11
199.26
21
148.49
31
465.45
0
LINE
8
CentreLine
10
199.26
20
148.49
30
465.45
11
199.50
21
149.73
31
465.74
0
LINE
8
CentreLine
10
199.50
20
149.73
30
465.74
11
201.37
21
150.77
31
466.60
0
LINE
8
CentreLine
10
201.37
20
150.77
30
466.60
11
201.42
21
152.23
31
466.92
0
LINE
8
CentreLine
10
201.42
20
152.23
30
466.92
11
202.47
21
152.25
31
467.50
0
LINE
8
CentreLine
10
202.47
20
152.25
30
467.50
11
203.60
21
152.60
31
468.57
0
LINE
8
CentreLine
10
203.60
20
152.60
30
468.57
11
204.80
21
152.64
31
468.61
0
LINE
8
CentreLine
10
204.80
20
152.64
30
468.61
11
206.51
21
154.75
31
469.88
0
LINE
8
CentreLine
10
195.33
20
147.29
30
456.08
11
195.33
21
147.29
31
460.78
0
LINE
8
CentreLine
10
195.33
20
147.29
30
460.78
11
189.61
21
148.82
31
458.62
0
LINE
8
CentreLine
10
189.61
20
148.82
30
458.62
11
188.26
21
147.80
31
458.62
0
LINE
8
CentreLine
10
188.26
20
147.80
30
458.62
11
188.38
21
147.11
31
458.62
0
LINE
8
CentreLine
10
188.38
20
147.11
30
458.62
11
186.07
21
146.70
31
457.27
0
LINE
8
CentreLine
10
186.07
20
146.70
30
457.27
11
187.22
21
144.71
31
455.34
0
LINE
8
CentreLine
10
187.22
20
144.71
30
455.34
11
186.23
21
144.80
31
455.34
0
LINE
8
CentreLine
10
186.23
20
144.80
30
455.34
11
186.27
21
142.61
31
454.37
0
LINE
8
CentreLine
10
186.27
20
142.61
30
454.37
11
183.92
21
146.68
31
452.66
0
LINE
8
CentreLine
10
127.83
20
127.88
30
376.50
11
127.83
21
127.88
31
369.50
0
LINE
8
CentreLine
10
127.83
20
127.88
30
369.50
11
130.71
21
126.08
31
366.10
0
LINE
8
CentreLine
10
130.71
20
126.08
30
366.10
11
130.71
21
126.08
31
357.80
0
LINE
8
CentreLine
10
130.71
20
126.08
30
357.80
11
129.21
21
124.47
31
357.80
0
LINE
8
CentreLine
10
129.21
20
124.47
30
357.80
11
128.32
21
120.27
31
357.80
0
LINE
8
CentreLine
10
127.83
20
127.88
30
376.50
11
127.34
21
120.90
31
376.50
0
LINE
8
CentreLine
10
129.30
20
134.19
30
374.17
11
129.30
21
132.54
31
374.17
0
LINE
8
CentreLine
10
129.30
20
132.54
30
374.17
11
130.27
21
135.19
31
377.00
0
LINE
8
CentreLine
10
100.02
20
131.97
30
354.15
11
104.44
21
127.71
31
356.27
0
LINE
8
CentreLine
10
100.02
20
131.97
30
350.25
11
100.02
21
131.97
31
338.95
0
LINE
8
CentreLine
10
100.02
20
131.97
30
338.95
11
100.02
21
129.37
31
338.95
0
LINE
8
CentreLine
10
100.02
20
129.37
30
338.95
11
100.02
21
129.37
31
335.45
0
LINE
8
CentreLine
10
100.02
20
129.37
30
335.45
11
 99.09
21
126.84
31
335.45
0
LINE
8
CentreLine
10
 99.09
20
126.84
30
335.45
11
 99.09
21
126.84
31
322.35
0
LINE
8
CentreLine
10
 99.09
20
126.84
30
322.35
11
 99.53
21
125.20
31
322.35
0
LINE
8
CentreLine
10
 99.53
20
125.20
30
322.35
11
 99.53
21
125.20
31
316.45
0
LINE
8
CentreLine
10
 99.53
20
125.20
30
316.45
11
102.39
21
123.55
31
316.45
0
LINE
8
CentreLine
10
108.60
20
114.01
30
348.43
11
108.92
21
116.59
31
346.24
0
LINE
8
CentreLine
10
108.92
20
116.59
30
346.24
11
108.92
21
116.59
31
335.64
0
LINE
8
CentreLine
10
108.60
20
114.01
30
348.43
11
109.86
21
103.76
31
350.81
0
LINE
8
CentreLine
10
109.86
20
103.76
30
350.81
11
121.42
21
 90.91
31
348.08
0
LINE
8
CentreLine
10
121.42
20
 90.91
30
348.08
11
127.95
21
 80.46
31
351.15
0
LINE
8
CentreLine
10
 94.67
20
129.48
30
350.25
11
 88.82
21
142.01
31
352.44
0
LINE
8
CentreLine
10
 88.82
20
142.01
30
352.44
11
 84.29
21
146.54
31
354.40
0
LINE
8
CentreLine
10
 84.29
20
146.54
30
354.40
11
 84.29
21
146.54
31
339.00
0
LINE
8
CentreLine
10
 84.29
20
146.54
30
339.00
11
 84.59
21
143.76
31
341.27
0
LINE
8
CentreLine
10
 84.59
20
143.76
30
341.27
11
 84.59
21
143.76
31
326.97
0
LINE
8
CentreLine
10
 88.82
20
142.01
30
352.44
11
 70.01
21
146.70
31
354.48
0
LINE
8
CentreLine
10
 70.01
20
146.70
30
354.48
11
 65.65
21
153.96
31
355.97
0
LINE
8
CentreLine
10
 65.65
20
153.96
30
355.97
11
 67.48
21
147.12
31
354.72
0
LINE
8
CentreLine
10
 67.48
20
147.12
30
354.72
11
 60.19
21
145.83
31
348.94
0
LINE
8
CentreLine
10
 60.19
20
145.83
30
348.94
11
 60.19
21
145.83
31
334.44
0
LINE
8
CentreLine
10
 65.65
20
153.96
30
355.97
11
 45.42
21
162.14
31
354.06
0
LINE
8
CentreLine
10
 45.42
20
162.14
30
354.06
11
 31.86
21
167.61
31
356.38
0
LINE
8
CentreLine
10
 31.86
20
167.61
30
356.38
11
 16.97
21
172.45
31
355.28
0
LINE
8
CentreLine
10
 16.97
20
172.45
30
355.28
11
 -3.51
21
177.56
31
351.18
0
LINE
8
CentreLine
10
 -3.51
20
177.56
30
351.18
11
-10.38
21
179.79
31
352.20
0
LINE
8
CentreLine
10
-10.38
20
179.79
30
352.20
11
-10.38
21
179.79
31
339.70
0
LINE
8
CentreLine
10
-10.38
20
179.79
30
339.70
11
-17.46
21
180.29
31
337.26
0
LINE
8
CentreLine
10
-17.46
20
180.29
30
337.26
11
-23.25
21
182.40
31
331.70
0
LINE
8
CentreLine
10
-23.25
20
182.40
30
331.70
11
-23.25
21
182.40
31
307.20
0
LINE
8
CentreLine
10
-23.25
20
182.40
30
307.20
11
-23.50
21
183.30
31
310.68
0
LINE
8
CentreLine
10
-23.50
20
183.30
30
310.68
11
-17.74
21
187.79
31
310.55
0
LINE
8
CentreLine
10
 -3.51
20
177.56
30
351.18
11
-11.06
21
184.85
31
355.64
0
LINE
8
CentreLine
10
-11.06
20
184.85
30
355.64
11
-18.74
21
182.65
31
353.04
0
LINE
8
CentreLine
10
-18.74
20
182.65
30
353.04
11
-28.90
21
181.04
31
353.58
0
LINE
8
CentreLine
10
-28.90
20
181.04
30
353.58
11
-35.05
21
183.78
31
356.87
0
LINE
8
CentreLine
10
-35.05
20
183.78
30
356.87
11
-41.15
21
179.97
31
360.37
0
LINE
8
CentreLine
10
-28.90
20
181.04
30
353.58
11
-33.35
21
178.67
31
354.84
0
LINE
8
CentreLine
10
-33.35
20
178.67
30
354.84
11
-37.74
21
174.71
31
350.22
0
LINE
8
CentreLine
10
-37.74
20
174.71
30
350.22
11
-41.06
21
164.50
31
348.33
0
LINE
8
CentreLine
10
-41.06
20
164.50
30
348.33
11
-57.26
21
168.54
31
348.62
0
LINE
8
CentreLine
10
109.86
20
103.76
30
350.81
11
113.86
21
 95.18
31
348.28
0
LINE
8
CentreLine
10
113.86
20
 95.18
30
348.28
11
114.98
21
 96.84
31
348.28
0
LINE
8
CentreLine
10
114.98
20
 96.84
30
348.28
11
114.98
21
 96.84
31
337.38
0
LINE
8
CentreLine
10
114.98
20
 96.84
30
337.38
11
105.65
21
 91.45
31
332.81
0
LINE
8
CentreLine
10
-23.50
20
183.30
30
310.68
11
-31.28
21
186.13
31
307.16
0
LINE
8
CentreLine
10
-31.28
20
186.13
30
307.16
11
-45.10
21
179.98
31
312.97
0
LINE
8
CentreLine
10
-45.10
20
179.98
30
312.97
11
-36.71
21
185.85
31
305.80
0
LINE
8
CentreLine
10
-36.71
20
185.85
30
305.80
11
-35.30
21
185.90
31
299.70
0
LINE
8
CentreLine
10
-35.30
20
185.90
30
299.70
11
-35.30
21
185.90
31
294.71
0
LINE
8
CentreLine
10
-35.30
20
185.90
30
294.71
11
-25.14
21
189.20
31
295.27
0
LINE
8
CentreLine
10
114.76
20
103.82
30
231.90
11
114.76
21
103.82
31
223.53
0
LINE
8
CentreLine
10
 80.58
20
 98.67
30
345.33
11
 82.27
21
 95.34
31
335.59
0
LINE
8
CentreLine
10
 82.27
20
 95.34
30
335.59
11
 82.27
21
 95.34
31
305.15
0
LINE
8
CentreLine
10
 82.27
20
 95.34
30
305.15
11
 82.99
21
 98.00
31
305.15
0
LINE
8
CentreLine
10
 82.99
20
 98.00
30
305.15
11
 84.77
21
 99.12
31
305.08
0
LINE
8
CentreLine
10
 84.77
20
 99.12
30
305.08
11
 84.77
21
 99.12
31
294.57
0
LINE
8
CentreLine
10
 45.42
20
162.14
30
354.06
11
 36.98
21
172.55
31
356.91
0
LINE
8
CentreLine
10
 36.98
20
172.55
30
356.91
11
 39.95
21
171.76
31
361.83
0
LINE
8
CentreLine
10
 39.95
20
171.76
30
361.83
11
 39.31
21
173.27
31
362.37
0
LINE
8
CentreLine
10
 39.31
20
173.27
30
362.37
11
 47.74
21
180.34
31
365.94
0
LINE
8
CentreLine
10
 47.74
20
180.34
30
365.94
11
 53.79
21
184.43
31
368.74
0
LINE
8
CentreLine
10
 53.79
20
184.43
30
368.74
11
 55.91
21
189.43
31
370.30
0
LINE
8
CentreLine
10
 55.91
20
189.43
30
370.30
11
 58.44
21
188.56
31
371.66
0
LINE
8
CentreLine
10
 55.91
20
189.43
30
370.30
11
 54.36
21
189.87
31
369.78
0
LINE
8
CentreLine
10
 54.36
20
189.87
30
369.78
11
 57.06
21
191.76
31
369.60
0
LINE
8
CentreLine
10
 57.06
20
191.76
30
369.60
11
 61.22
21
191.40
31
369.16
0
LINE
8
CentreLine
10
 61.22
20
191.40
30
369.16
11
 59.73
21
193.88
31
368.96
0
LINE
8
CentreLine
10
 59.73
20
193.88
30
368.96
11
 58.19
21
194.80
31
368.31
0
LINE
8
CentreLine
10
 58.19
20
194.80
30
368.31
11
 60.09
21
195.31
31
369.14
0
LINE
8
CentreLine
10
 60.09
20
195.31
30
369.14
11
 57.85
21
197.55
31
368.75
0
LINE
8
CentreLine
10
 57.85
20
197.55
30
368.75
11
 56.77
21
200.08
31
369.81
0
LINE
8
CentreLine
10
 57.85
20
197.55
30
368.75
11
 60.40
21
198.43
31
367.82
0
LINE
8
CentreLine
10
 60.40
20
198.43
30
367.82
11
 64.82
21
201.52
31
364.46
0
LINE
8
CentreLine
10
 64.82
20
201.52
30
364.46
11
 64.67
21
199.80
31
362.00
0
LINE
8
CentreLine
10
 64.67
20
199.80
30
362.00
11
 64.12
21
206.00
31
358.69
0
LINE
8
CentreLine
10
 64.67
20
199.80
30
362.00
11
 66.83
21
197.98
31
359.17
0
LINE
8
CentreLine
10
-10.38
20
179.79
30
352.20
11
 -6.82
21
178.56
31
353.72
0
LINE
8
CentreLine
10
 -6.82
20
178.56
30
353.72
11
 -7.96
21
183.50
31
353.63
0
LINE
8
CentreLine
10
 -7.96
20
183.50
30
353.63
11
 -5.47
21
187.06
31
354.72
0
LINE
8
CentreLine
10
 -5.47
20
187.06
30
354.72
11
 -8.17
21
189.32
31
354.78
0
LINE
8
CentreLine
10
 -8.17
20
189.32
30
354.78
11
 -6.75
21
195.48
31
357.46
0
LINE
8
CentreLine
10
 -6.75
20
195.48
30
357.46
11
 -5.27
21
198.81
31
358.44
0
LINE
8
CentreLine
10
 -5.27
20
198.81
30
358.44
11
 -7.68
21
199.33
31
357.78
0
LINE
8
CentreLine
10
 -7.68
20
199.33
30
357.78
11
 -8.31
21
198.97
31
355.07
0
LINE
8
CentreLine
10
 -8.31
20
198.97
30
355.07
11
 -7.11
21
197.64
31
354.76
0
LINE
8
CentreLine
10
 -7.68
20
199.33
30
357.78
11
 -6.64
21
202.70
31
359.20
0
LINE
8
CentreLine
10
 -6.64
20
202.70
30
359.20
11
 -3.83
21
205.32
31
361.25
0
LINE
8
CentreLine
10
 -3.83
20
205.32
30
361.25
11
 -5.56
21
207.88
31
361.62
0
LINE
8
CentreLine
10
 -5.56
20
207.88
30
361.62
11
 -3.63
21
208.82
31
364.70
0
LINE
8
CentreLine
10
 -5.56
20
207.88
30
361.62
11
 -7.38
21
207.79
31
361.20
0
LINE
8
CentreLine
10
 -8.17
20
189.32
30
354.78
11
 -8.17
21
189.32
31
349.78
0
LINE
8
CentreLine
10
 -8.31
20
198.97
30
355.07
11
 -6.79
21
204.26
31
355.07
0
LINE
8
CentreLine
10
 -6.79
20
204.26
30
355.07
11
 -6.79
21
204.26
31
350.07
0
LINE
8
CentreLine
10
 65.65
20
153.96
30
355.97
11
 65.65
21
153.96
31
352.07
0
LINE
8
CentreLine
10
 65.65
20
153.96
30
352.07
11
 69.12
21
156.68
31
354.42
0
LINE
8
CentreLine
10
 69.12
20
156.68
30
354.42
11
 73.66
21
155.71
31
355.75
0
LINE
8
CentreLine
10
 73.66
20
155.71
30
355.75
11
 73.66
21
155.71
31
315.75
0
LINE
8
CentreLine
10
-10.38
20
179.79
30
352.20
11
-10.38
21
179.79
31
353.80
0
LINE
8
CentreLine
10
-10.38
20
179.79
30
353.80
11
 -7.98
21
182.87
31
353.80
0
LINE
8
CentreLine
10
 -7.98
20
182.87
30
353.80
11
 -5.38
21
185.96
31
354.15
0
LINE
8
CentreLine
10
 -5.38
20
185.96
30
354.15
11
 -8.04
21
187.83
31
354.44
0
LINE
8
CentreLine
10
 -8.04
20
187.83
30
354.44
11
 -5.97
21
193.54
31
357.01
0
LINE
8
CentreLine
10
 -5.97
20
193.54
30
357.01
11
 -5.40
21
195.00
31
357.32
0
LINE
8
CentreLine
10
 -5.40
20
195.00
30
357.32
11
 -3.62
21
197.29
31
358.43
0
LINE
8
CentreLine
10
 -3.62
20
197.29
30
358.43
11
 -5.90
21
198.26
31
357.77
0
LINE
8
CentreLine
10
 -5.90
20
198.26
30
357.77
11
 -7.53
21
197.50
31
356.37
0
LINE
8
CentreLine
10
 -7.53
20
197.50
30
356.37
11
 -7.53
21
197.50
31
353.92
0
LINE
8
CentreLine
10
 -7.53
20
197.50
30
353.92
11
 -6.69
21
202.81
31
355.46
0
LINE
8
CentreLine
10
 -6.69
20
202.81
30
355.46
11
-12.72
21
205.88
31
349.78
0
LINE
8
CentreLine
10
-12.72
20
205.88
30
349.78
11
-12.72
21
205.88
31
352.51
0
LINE
8
CentreLine
10
-12.72
20
205.88
30
352.51
11
-15.55
21
206.97
31
352.94
0
LINE
8
CentreLine
10
-15.55
20
206.97
30
352.94
11
-16.30
21
209.26
31
352.94
0
LINE
8
CentreLine
10
-16.30
20
209.26
30
352.94
11
-17.30
21
210.37
31
355.07
0
LINE
8
CentreLine
10
-17.30
20
210.37
30
355.07
11
-18.59
21
211.96
31
355.25
0
LINE
8
CentreLine
10
-18.59
20
211.96
30
355.25
11
-18.59
21
211.96
31
351.65
0
LINE
8
CentreLine
10
-18.59
20
211.96
30
351.65
11
-24.93
21
211.96
31
334.23
0
LINE
8
CentreLine
10
 65.65
20
153.96
30
355.97
11
 62.44
21
153.68
31
354.47
0
LINE
8
CentreLine
10
 62.44
20
153.68
30
354.47
11
 70.79
21
156.89
31
355.10
0
LINE
8
CentreLine
10
 70.79
20
156.89
30
355.10
11
 73.94
21
156.89
31
355.77
0
LINE
8
CentreLine
10
 73.94
20
156.89
30
355.77
11
 73.94
21
156.89
31
279.57
0
LINE
8
CentreLine
10
 73.94
20
156.89
30
279.57
11
 70.75
21
155.05
31
276.69
0
LINE
8
CentreLine
10
 70.75
20
155.05
30
276.69
11
 67.62
21
152.86
31
267.23
0
LINE
8
CentreLine
10
 67.62
20
152.86
30
267.23
11
 67.71
21
153.83
31
264.93
0
LINE
8
CentreLine
10
 67.71
20
153.83
30
264.93
11
 67.71
21
153.83
31
253.63
0
LINE
8
CentreLine
10
 67.71
20
153.83
30
253.63
11
 62.70
21
164.56
31
256.14
0
LINE
8
CentreLine
10
 62.70
20
164.56
30
256.14
11
 62.32
21
168.20
31
254.66
0
LINE
8
CentreLine
10
 62.32
20
168.20
30
254.66
11
 61.24
21
172.87
31
251.31
0
LINE
8
CentreLine
10
262.43
20
 20.71
30
338.74
11
260.07
21
 15.64
31
341.11
0
LINE
8
CentreLine
10
260.07
20
 15.64
30
341.11
11
260.07
21
 15.64
31
349.26
0
LINE
8
CentreLine
10
260.07
20
 15.64
30
349.26
11
260.47
21
 15.22
31
349.48
0
LINE
8
CentreLine
10
260.47
20
 15.22
30
349.48
11
258.28
21
  9.81
31
354.38
0
LINE
8
CentreLine
10
258.28
20
  9.81
30
354.38
11
263.80
21
  5.80
31
358.65
0
LINE
8
CentreLine
10
263.80
20
  5.80
30
358.65
11
261.26
21
 12.07
31
377.25
0
LINE
8
CentreLine
10
261.26
20
 12.07
30
377.25
11
259.04
21
 17.08
31
385.38
0
LINE
8
CentreLine
10
259.04
20
 17.08
30
385.38
11
259.17
21
 18.36
31
387.80
0
LINE
8
CentreLine
10
259.17
20
 18.36
30
387.80
11
257.17
21
 21.44
31
392.33
0
LINE
8
CentreLine
10
257.17
20
 21.44
30
392.33
11
257.04
21
 17.29
31
394.00
0
LINE
8
CentreLine
10
257.04
20
 17.29
30
394.00
11
251.31
21
 18.19
31
391.54
0
LINE
8
CentreLine
10
251.31
20
 18.19
30
391.54
11
251.15
21
 19.94
31
392.17
0
LINE
8
CentreLine
10
251.15
20
 19.94
30
392.17
11
249.07
21
 21.81
31
392.69
0
LINE
8
CentreLine
10
249.07
20
 21.81
30
392.69
11
245.38
21
 22.53
31
394.37
0
LINE
8
CentreLine
10
245.38
20
 22.53
30
394.37
11
243.52
21
 26.52
31
394.37
0
LINE
8
CentreLine
10
243.52
20
 26.52
30
394.37
11
243.52
21
 26.52
31
402.08
0
LINE
8
CentreLine
10
243.52
20
 26.52
30
402.08
11
237.98
21
 27.70
31
404.36
0
LINE
8
CentreLine
10
237.98
20
 27.70
30
404.36
11
237.76
21
 29.29
31
404.42
0
LINE
8
CentreLine
10
237.76
20
 29.29
30
404.42
11
236.76
21
 29.94
31
404.83
0
LINE
8
CentreLine
10
236.76
20
 29.94
30
404.83
11
235.93
21
 33.30
31
408.17
0
LINE
8
CentreLine
10
235.93
20
 33.30
30
408.17
11
229.86
21
 32.98
31
407.85
0
LINE
8
CentreLine
10
229.86
20
 32.98
30
407.85
11
228.37
21
 37.33
31
408.75
0
LINE
8
CentreLine
10
228.37
20
 37.33
30
408.75
11
229.21
21
 38.98
31
415.65
0
LINE
8
CentreLine
10
229.21
20
 38.98
30
415.65
11
229.21
21
 38.98
31
420.11
0
LINE
8
CentreLine
10
229.21
20
 38.98
30
420.11
11
226.19
21
 40.45
31
421.54
0
LINE
8
CentreLine
10
226.19
20
 40.45
30
421.54
11
229.72
21
 30.20
31
419.82
0
LINE
8
CentreLine
10
229.72
20
 30.20
30
419.82
11
229.72
21
 30.20
31
436.03
0
LINE
8
CentreLine
10
229.72
20
 30.20
30
436.03
11
230.40
21
 29.32
31
435.83
0
LINE
8
CentreLine
10
230.40
20
 29.32
30
435.83
11
230.40
21
 29.32
31
445.53
0
LINE
8
CentreLine
10
230.40
20
 29.32
30
445.53
11
235.32
21
 33.31
31
449.34
0
LINE
8
CentreLine
10
235.32
20
 33.31
30
449.34
11
235.32
21
 33.31
31
457.74
0
LINE
8
CentreLine
10
235.32
20
 33.31
30
457.74
11
235.93
21
 32.44
31
458.21
0
LINE
8
CentreLine
10
235.93
20
 32.44
30
458.21
11
238.22
21
 32.68
31
461.15
0
LINE
8
CentreLine
10
238.22
20
 32.68
30
461.15
11
236.98
21
 32.23
31
464.40
0
LINE
8
CentreLine
10
236.98
20
 32.23
30
464.40
11
236.06
21
 33.09
31
464.48
0
LINE
8
CentreLine
10
236.06
20
 33.09
30
464.48
11
236.06
21
 33.09
31
471.37
0
LINE
8
CentreLine
10
236.06
20
 33.09
30
471.37
11
234.84
21
 29.90
31
469.07
0
LINE
8
CentreLine
10
234.84
20
 29.90
30
469.07
11
227.49
21
 34.86
31
469.85
0
LINE
8
CentreLine
10
227.49
20
 34.86
30
469.85
11
226.80
21
 32.30
31
470.46
0
LINE
8
CentreLine
10
226.80
20
 32.30
30
470.46
11
226.80
21
 32.30
31
471.55
0
LINE
8
CentreLine
10
226.80
20
 32.30
30
471.55
11
225.52
21
 32.55
31
471.27
0
LINE
8
CentreLine
10
225.52
20
 32.55
30
471.27
11
225.52
21
 32.55
31
472.99
0
LINE
8
CentreLine
10
225.52
20
 32.55
30
472.99
11
223.41
21
 29.18
31
475.67
0
LINE
8
CentreLine
10
251.31
20
 18.19
30
391.54
11
251.31
21
 18.19
31
387.54
0
LINE
8
CentreLine
10
259.04
20
 17.08
30
385.38
11
259.92
21
 16.34
31
384.37
0
LINE
8
CentreLine
10
263.80
20
  5.80
30
358.65
11
257.09
21
  5.56
31
358.76
0
LINE
8
CentreLine
10
257.09
20
  5.56
30
358.76
11
257.09
21
  5.56
31
354.76
0
LINE
8
CentreLine
10
280.28
20
  4.45
30
351.17
11
283.10
21
  8.97
31
350.89
0
LINE
8
CentreLine
10
275.86
20
 21.54
30
354.59
11
282.83
21
  8.95
31
350.74
0
LINE
8
CentreLine
10
282.83
20
  8.95
30
350.74
11
285.10
21
  7.74
31
349.90
0
LINE
8
CentreLine
10
285.10
20
  7.74
30
349.90
11
291.28
21
  5.74
31
351.05
0
LINE
8
CentreLine
10
291.28
20
  5.74
30
351.05
11
295.95
21
  1.22
31
350.59
0
LINE
8
CentreLine
10
295.95
20
  1.22
30
350.59
11
296.59
21
 -4.84
31
343.58
0
LINE
8
CentreLine
10
296.59
20
 -4.84
30
343.58
11
298.20
21
 -4.02
31
341.18
0
LINE
8
CentreLine
10
298.20
20
 -4.02
30
341.18
11
298.20
21
 -4.02
31
331.18
0
LINE
8
CentreLine
10
275.86
20
 21.54
30
354.59
11
277.28
21
  5.25
31
348.64
0
LINE
8
CentreLine
10
277.28
20
  5.25
30
348.64
11
277.28
21
  5.25
31
328.44
0
LINE
8
CentreLine
10
277.28
20
  5.25
30
328.44
11
281.88
21
  2.37
31
325.05
0
LINE
8
CentreLine
10
281.88
20
  2.37
30
325.05
11
281.88
21
  2.37
31
298.65
0
LINE
8
CentreLine
10
281.88
20
  2.37
30
298.65
11
277.21
21
 -1.55
31
298.86
0
LINE
8
CentreLine
10
298.20
20
 -4.02
30
341.18
11
305.24
21
 -9.93
31
341.66
0
LINE
8
CentreLine
10
305.24
20
 -9.93
30
341.66
11
306.45
21
-10.69
31
343.95
0
LINE
8
CentreLine
10
306.45
20
-10.69
30
343.95
11
309.43
21
-11.38
31
345.19
0
LINE
8
CentreLine
10
309.43
20
-11.38
30
345.19
11
311.47
21
-13.14
31
345.05
0
LINE
8
CentreLine
10
311.47
20
-13.14
30
345.05
11
313.71
21
-14.60
31
345.86
0
LINE
8
CentreLine
10
313.71
20
-14.60
30
345.86
11
316.19
21
-14.95
31
346.88
0
LINE
8
CentreLine
10
316.19
20
-14.95
30
346.88
11
317.71
21
-14.66
31
346.85
0
LINE
8
CentreLine
10
317.71
20
-14.66
30
346.85
11
319.78
21
 -6.94
31
347.13
0
LINE
8
CentreLine
10
319.78
20
 -6.94
30
347.13
11
318.19
21
 -8.02
31
348.02
0
LINE
8
CentreLine
10
318.19
20
 -8.02
30
348.02
11
318.19
21
 -8.02
31
333.79
0
LINE
8
CentreLine
10
318.19
20
 -8.02
30
333.79
11
316.60
21
-11.12
31
334.10
0
LINE
8
CentreLine
10
316.60
20
-11.12
30
334.10
11
314.72
21
-13.45
31
332.00
0
LINE
8
CentreLine
10
314.72
20
-13.45
30
332.00
11
310.34
21
-12.67
31
325.65
0
LINE
8
CentreLine
10
310.34
20
-12.67
30
325.65
11
310.34
21
-12.67
31
311.18
0
LINE
8
CentreLine
10
310.34
20
-12.67
30
311.18
11
309.61
21
-14.69
31
310.68
0
LINE
8
CentreLine
10
309.61
20
-14.69
30
310.68
11
309.61
21
-14.69
31
307.01
0
LINE
8
CentreLine
10
309.61
20
-14.69
30
307.01
11
308.76
21
-17.45
31
306.76
0
LINE
8
CentreLine
10
310.34
20
-12.67
30
325.65
11
306.36
21
-14.97
31
321.79
0
LINE
8
CentreLine
10
318.19
20
 -8.02
30
333.79
11
322.82
21
-12.65
31
338.38
0
LINE
8
CentreLine
10
275.86
20
 21.54
30
354.59
11
267.16
21
 40.18
31
358.97
0
LINE
8
CentreLine
10
267.16
20
 40.18
30
358.97
11
259.37
21
 54.23
31
364.50
0
LINE
8
CentreLine
10
259.37
20
 54.23
30
364.50
11
261.64
21
 64.90
31
364.69
0
LINE
8
CentreLine
10
261.64
20
 64.90
30
364.69
11
260.85
21
 69.39
31
367.88
0
LINE
8
CentreLine
10
260.85
20
 69.39
30
367.88
11
254.96
21
 80.46
31
370.31
0
LINE
8
CentreLine
10
254.96
20
 80.46
30
370.31
11
257.04
21
 84.07
31
371.59
0
LINE
8
CentreLine
10
257.04
20
 84.07
30
371.59
11
259.76
21
 91.96
31
379.64
0
LINE
8
CentreLine
10
259.76
20
 91.96
30
379.64
11
262.39
21
 94.98
31
381.78
0
LINE
8
CentreLine
10
262.39
20
 94.98
30
381.78
11
262.39
21
 94.98
31
386.68
0
LINE
8
CentreLine
10
257.04
20
 84.07
30
371.59
11
265.28
21
 76.11
31
374.87
0
LINE
8
CentreLine
10
265.28
20
 76.11
30
374.87
11
276.94
21
 65.24
31
371.77
0
LINE
8
CentreLine
10
276.94
20
 65.24
30
371.77
11
279.18
21
 59.39
31
371.77
0
LINE
8
CentreLine
10
279.18
20
 59.39
30
371.77
11
278.38
21
 54.31
31
375.37
0
LINE
8
CentreLine
10
279.18
20
 59.39
30
371.77
11
286.05
21
 55.58
31
370.39
0
LINE
8
CentreLine
10
279.18
20
 59.39
30
371.77
11
272.64
21
 63.01
31
370.18
0
LINE
8
CentreLine
10
261.64
20
 64.90
30
364.69
11
265.41
21
 71.99
31
373.60
0
LINE
8
CentreLine
10
263.80
20
  5.80
30
358.65
11
258.21
21
  5.70
31
358.45
0
LINE
8
CentreLine
10
258.21
20
  5.70
30
358.45
11
255.11
21
  1.44
31
356.53
0
LINE
8
CentreLine
10
255.11
20
  1.44
30
356.53
11
255.11
21
  1.44
31
346.72
0
LINE
8
CentreLine
10
255.11
20
  1.44
30
346.72
11
250.79
21
 -2.74
31
347.68
0
LINE
8
CentreLine
10
250.79
20
 -2.74
30
347.68
11
249.18
21
 -4.79
31
346.62
0
LINE
8
CentreLine
10
249.18
20
 -4.79
30
346.62
11
251.46
21
 -8.74
31
336.85
0
LINE
8
CentreLine
10
251.46
20
 -8.74
30
336.85
11
250.49
21
-14.21
31
332.36
0
LINE
8
CentreLine
10
250.49
20
-14.21
30
332.36
11
242.78
21
-16.57
31
337.02
0
LINE
8
CentreLine
10
242.78
20
-16.57
30
337.02
11
241.29
21
-17.26
31
337.13
0
LINE
8
CentreLine
10
241.29
20
-17.26
30
337.13
11
240.37
21
-17.95
31
337.62
0
LINE
8
CentreLine
10
240.37
20
-17.95
30
337.62
11
244.58
21
-20.10
31
338.11
0
LINE
8
CentreLine
10
244.58
20
-20.10
30
338.11
11
247.01
21
-18.81
31
342.52
0
LINE
8
CentreLine
10
247.01
20
-18.81
30
342.52
11
250.81
21
-19.54
31
343.62
0
LINE
8
CentreLine
10
250.81
20
-19.54
30
343.62
11
254.07
21
-17.88
31
345.49
0
LINE
8
CentreLine
10
254.07
20
-17.88
30
345.49
11
255.51
21
-18.13
31
346.81
0
LINE
8
CentreLine
10
255.51
20
-18.13
30
346.81
11
257.09
21
-18.80
31
346.44
0
LINE
8
CentreLine
10
257.09
20
-18.80
30
346.44
11
258.01
21
-19.03
31
345.83
0
LINE
8
CentreLine
10
258.01
20
-19.03
30
345.83
11
259.11
21
-18.42
31
344.69
0
LINE
8
CentreLine
10
259.11
20
-18.42
30
344.69
11
262.28
21
-20.73
31
345.24
0
LINE
8
CentreLine
10
262.28
20
-20.73
30
345.24
11
261.25
21
-23.92
31
349.54
0
LINE
8
CentreLine
10
261.25
20
-23.92
30
349.54
11
259.72
21
-25.61
31
347.82
0
LINE
8
CentreLine
10
259.72
20
-25.61
30
347.82
11
258.84
21
-25.91
31
347.52
0
LINE
8
CentreLine
10
258.84
20
-25.91
30
347.52
11
260.59
21
-29.33
31
348.13
0
LINE
8
CentreLine
10
260.59
20
-29.33
30
348.13
11
258.36
21
-29.97
31
347.29
0
LINE
8
CentreLine
10
258.36
20
-29.97
30
347.29
11
260.95
21
-32.84
31
347.22
0
LINE
8
CentreLine
10
260.95
20
-32.84
30
347.22
11
258.86
21
-38.00
31
346.34
0
LINE
8
CentreLine
10
258.86
20
-38.00
30
346.34
11
258.92
21
-41.18
31
344.02
0
LINE
8
CentreLine
10
258.92
20
-41.18
30
344.02
11
258.92
21
-41.18
31
340.17
0
LINE
8
CentreLine
10
258.92
20
-41.18
30
340.17
11
256.22
21
-42.38
31
338.47
0
LINE
8
CentreLine
10
256.22
20
-42.38
30
338.47
11
256.22
21
-42.38
31
333.87
0
LINE
8
CentreLine
10
256.22
20
-42.38
30
333.87
11
254.05
21
-42.35
31
333.45
0
LINE
8
CentreLine
10
254.05
20
-42.35
30
333.45
11
254.05
21
-42.35
31
329.79
0
LINE
8
CentreLine
10
254.05
20
-42.35
30
329.79
11
252.47
21
-43.87
31
328.72
0
LINE
8
CentreLine
10
252.47
20
-43.87
30
328.72
11
252.47
21
-43.87
31
324.05
0
LINE
8
CentreLine
10
252.47
20
-43.87
30
324.05
11
250.95
21
-44.71
31
323.31
0
LINE
8
CentreLine
10
270.92
20
 25.84
30
330.88
11
262.76
21
 33.73
31
326.18
0
LINE
8
CentreLine
10
281.28
20
-111.74
30
157.55
11
270.08
21
-120.18
31
171.58
0
LINE
8
CentreLine
10
308.39
20
-41.07
30
111.21
11
297.10
21
-36.04
31
104.07
0
LINE
8
CentreLine
10
270.92
20
 25.84
30
330.88
11
268.00
21
 34.33
31
327.07
0
LINE
8
CentreLine
10
268.00
20
 34.33
30
327.07
11
265.92
21
 37.93
31
327.73
0
LINE
8
CentreLine
10
265.92
20
 37.93
30
327.73
11
269.42
21
 37.38
31
325.52
0
LINE
8
CentreLine
10
269.42
20
 37.38
30
325.52
11
269.42
21
 37.38
31
323.91
0
LINE
8
CentreLine
10
269.42
20
 37.38
30
323.91
11
270.37
21
 35.81
31
322.58
0
LINE
8
CentreLine
10
270.37
20
 35.81
30
322.58
11
271.87
21
 35.70
31
321.12
0
LINE
8
CentreLine
10
271.87
20
 35.70
30
321.12
11
272.85
21
 34.92
31
320.99
0
LINE
8
CentreLine
10
272.85
20
 34.92
30
320.99
11
271.01
21
 32.38
31
321.10
0
LINE
8
CentreLine
10
271.01
20
 32.38
30
321.10
11
268.04
21
 31.12
31
321.61
0
LINE
8
CentreLine
10
268.04
20
 31.12
30
321.61
11
269.36
21
 29.60
31
318.93
0
LINE
8
CentreLine
10
269.36
20
 29.60
30
318.93
11
270.35
21
 30.15
31
313.60
0
LINE
8
CentreLine
10
270.35
20
 30.15
30
313.60
11
275.88
21
 27.69
31
313.71
0
LINE
8
CentreLine
10
275.88
20
 27.69
30
313.71
11
276.71
21
 25.82
31
312.33
0
LINE
8
CentreLine
10
276.71
20
 25.82
30
312.33
11
280.43
21
 22.80
31
311.31
0
LINE
8
CentreLine
10
280.43
20
 22.80
30
311.31
11
284.37
21
 21.82
31
311.52
0
LINE
8
CentreLine
10
284.37
20
 21.82
30
311.52
11
286.56
21
 22.13
31
311.87
0
LINE
8
CentreLine
10
286.56
20
 22.13
30
311.87
11
290.13
21
 20.46
31
310.28
0
LINE
8
CentreLine
10
290.13
20
 20.46
30
310.28
11
292.25
21
 21.74
31
310.36
0
LINE
8
CentreLine
10
292.25
20
 21.74
30
310.36
11
295.68
21
 20.07
31
310.97
0
LINE
8
CentreLine
10
295.68
20
 20.07
30
310.97
11
297.60
21
 22.06
31
309.44
0
LINE
8
CentreLine
10
297.60
20
 22.06
30
309.44
11
297.60
21
 22.06
31
314.55
0
LINE
8
CentreLine
10
297.60
20
 22.06
30
314.55
11
301.88
21
 23.70
31
313.74
0
LINE
8
CentreLine
10
301.88
20
 23.70
30
313.74
11
307.93
21
 18.06
31
308.57
0
LINE
8
CentreLine
10
307.93
20
 18.06
30
308.57
11
312.14
21
 14.65
31
311.21
0
LINE
8
CentreLine
10
312.14
20
 14.65
30
311.21
11
315.45
21
 13.58
31
312.69
0
LINE
8
CentreLine
10
315.45
20
 13.58
30
312.69
11
315.76
21
 15.16
31
313.24
0
LINE
8
CentreLine
10
315.76
20
 15.16
30
313.24
11
315.76
21
 15.16
31
312.00
0
LINE
8
CentreLine
10
315.76
20
 15.16
30
312.00
11
321.79
21
 15.26
31
314.81
0
LINE
8
CentreLine
10
321.79
20
 15.26
30
314.81
11
320.66
21
 15.10
31
315.91
0
LINE
8
CentreLine
10
320.66
20
 15.10
30
315.91
11
324.38
21
 14.91
31
315.59
0
LINE
8
CentreLine
10
324.38
20
 14.91
30
315.59
11
324.38
21
 14.91
31
319.89
0
LINE
8
CentreLine
10
324.38
20
 14.91
30
319.89
11
318.73
21
 16.11
31
325.87
0
LINE
8
CentreLine
10
318.73
20
 16.11
30
325.87
11
316.23
21
 24.29
31
327.53
0
LINE
8
CentreLine
10
316.23
20
 24.29
30
327.53
11
311.73
21
 28.78
31
324.96
0
LINE
8
CentreLine
10
311.73
20
 28.78
30
324.96
11
311.86
21
 36.34
31
323.49
0
LINE
8
CentreLine
10
311.86
20
 36.34
30
323.49
11
310.52
21
 44.83
31
319.84
0
LINE
8
CentreLine
10
310.52
20
 44.83
30
319.84
11
310.52
21
 44.83
31
327.84
0
LINE
8
CentreLine
10
281.28
20
-111.74
30
157.55
11
273.69
21
-123.88
31
171.37
0
LINE
8
CentreLine
10
273.69
20
-123.88
30
171.37
11
275.24
21
-133.62
31
176.84
0
LINE
8
CentreLine
10
275.24
20
-133.62
30
176.84
11
263.67
21
-149.54
31
187.75
0
LINE
8
CentreLine
10
263.67
20
-149.54
30
187.75
11
261.58
21
-150.30
31
188.78
0
LINE
8
CentreLine
10
261.58
20
-150.30
30
188.78
11
273.63
21
-152.20
31
197.97
0
LINE
8
CentreLine
10
270.35
20
 30.15
30
313.60
11
268.58
21
 29.32
31
313.46
0
LINE
8
CentreLine
10
268.58
20
 29.32
30
313.46
11
272.44
21
 28.22
31
310.65
0
LINE
8
CentreLine
10
272.44
20
 28.22
30
310.65
11
273.25
21
 25.56
31
310.50
0
LINE
8
CentreLine
10
273.25
20
 25.56
30
310.50
11
281.89
21
 20.77
31
310.16
0
LINE
8
CentreLine
10
281.89
20
 20.77
30
310.16
11
284.76
21
 21.49
31
310.21
0
LINE
8
CentreLine
10
284.76
20
 21.49
30
310.21
11
289.83
21
 19.23
31
310.02
0
LINE
8
CentreLine
10
289.83
20
 19.23
30
310.02
11
291.81
21
 20.83
31
310.56
0
LINE
8
CentreLine
10
291.81
20
 20.83
30
310.56
11
293.59
21
 20.08
31
310.86
0
LINE
8
CentreLine
10
293.59
20
 20.08
30
310.86
11
297.12
21
 21.16
31
309.52
0
LINE
8
CentreLine
10
297.12
20
 21.16
30
309.52
11
299.82
21
 19.78
31
307.70
0
LINE
8
CentreLine
10
299.82
20
 19.78
30
307.70
11
302.03
21
 15.26
31
304.31
0
LINE
8
CentreLine
10
302.03
20
 15.26
30
304.31
11
302.21
21
 17.32
31
302.38
0
LINE
8
CentreLine
10
302.21
20
 17.32
30
302.38
11
299.95
21
 19.35
31
302.38
0
LINE
8
CentreLine
10
299.95
20
 19.35
30
302.38
11
298.67
21
 19.53
31
301.13
0
LINE
8
CentreLine
10
298.67
20
 19.53
30
301.13
11
296.81
21
 20.21
31
300.45
0
LINE
8
CentreLine
10
296.81
20
 20.21
30
300.45
11
293.44
21
 18.63
31
299.24
0
LINE
8
CentreLine
10
293.44
20
 18.63
30
299.24
11
292.25
21
 20.68
31
299.37
0
LINE
8
CentreLine
10
292.25
20
 20.68
30
299.37
11
289.62
21
 17.96
31
297.00
0
LINE
8
CentreLine
10
289.62
20
 17.96
30
297.00
11
283.83
21
 18.26
31
293.91
0
LINE
8
CentreLine
10
283.83
20
 18.26
30
293.91
11
278.68
21
  2.41
31
287.18
0
LINE
8
CentreLine
10
278.68
20
  2.41
30
287.18
11
276.14
21
 -4.96
31
279.91
0
LINE
8
CentreLine
10
276.14
20
 -4.96
30
279.91
11
271.67
21
-10.67
31
273.61
0
LINE
8
CentreLine
10
271.96
20
-14.84
30
213.70
11
272.49
21
-24.85
31
222.74
0
LINE
8
CentreLine
10
272.49
20
-24.85
30
222.74
11
265.03
21
-33.13
31
235.11
0
LINE
8
CentreLine
10
265.03
20
-33.13
30
235.11
11
261.87
21
-41.37
31
239.22
0
LINE
8
CentreLine
10
261.87
20
-41.37
30
239.22
11
260.68
21
-42.00
31
236.45
0
LINE
8
CentreLine
10
260.68
20
-42.00
30
236.45
11
257.63
21
-43.56
31
231.90
0
LINE
8
CentreLine
10
257.63
20
-43.56
30
231.90
11
257.42
21
-47.52
31
230.76
0
LINE
8
CentreLine
10
257.42
20
-47.52
30
230.76
11
256.52
21
-50.00
31
232.28
0
LINE
8
CentreLine
10
256.52
20
-50.00
30
232.28
11
253.61
21
-53.22
31
232.05
0
LINE
8
CentreLine
10
253.61
20
-53.22
30
232.05
11
254.44
21
-54.72
31
230.28
0
LINE
8
CentreLine
10
254.44
20
-54.72
30
230.28
11
252.52
21
-55.16
31
228.69
0
LINE
8
CentreLine
10
252.52
20
-55.16
30
228.69
11
252.52
21
-55.16
31
227.43
0
LINE
8
CentreLine
10
252.52
20
-55.16
30
227.43
11
251.77
21
-54.74
31
227.76
0
LINE
8
CentreLine
10
251.77
20
-54.74
30
227.76
11
246.31
21
-57.53
31
219.91
0
LINE
8
CentreLine
10
246.31
20
-57.53
30
219.91
11
242.00
21
-55.88
31
215.91
0
LINE
8
CentreLine
10
242.00
20
-55.88
30
215.91
11
242.00
21
-55.88
31
205.63
0
LINE
8
CentreLine
10
242.00
20
-55.88
30
205.63
11
247.32
21
-52.55
31
203.71
0
LINE
8
CentreLine
10
247.32
20
-52.55
30
203.71
11
246.04
21
-52.62
31
202.11
0
LINE
8
CentreLine
10
246.04
20
-52.62
30
202.11
11
246.04
21
-52.62
31
180.27
0
LINE
8
CentreLine
10
246.04
20
-52.62
30
180.27
11
246.04
21
-52.62
31
163.84
0
LINE
8
CentreLine
10
246.04
20
-52.62
30
163.84
11
239.61
21
-58.40
31
164.91
0
LINE
8
CentreLine
10
239.61
20
-58.40
30
164.91
11
240.88
21
-61.88
31
162.22
0
LINE
8
CentreLine
10
240.88
20
-61.88
30
162.22
11
241.26
21
-62.94
31
156.91
0
LINE
8
CentreLine
10
241.26
20
-62.94
30
156.91
11
241.26
21
-62.94
31
131.28
0
LINE
8
CentreLine
10
241.26
20
-62.94
30
131.28
11
241.26
21
-62.94
31
117.15
0
LINE
8
CentreLine
10
241.26
20
-62.94
30
117.15
11
239.02
21
-66.68
31
119.27
0
LINE
8
CentreLine
10
239.02
20
-66.68
30
119.27
11
237.73
21
-69.19
31
117.77
0
LINE
8
CentreLine
10
237.73
20
-69.19
30
117.77
11
237.73
21
-69.19
31
111.99
0
LINE
8
CentreLine
10
237.73
20
-69.19
30
111.99
11
233.63
21
-73.02
31
111.20
0
LINE
8
CentreLine
10
233.63
20
-73.02
30
111.20
11
233.78
21
-76.01
31
110.94
0
LINE
8
CentreLine
10
233.78
20
-76.01
30
110.94
11
231.81
21
-76.04
31
109.40
0
LINE
8
CentreLine
10
231.81
20
-76.04
30
109.40
11
230.25
21
-78.75
31
107.60
0
LINE
8
CentreLine
10
230.25
20
-78.75
30
107.60
11
227.01
21
-82.90
31
 97.69
0
LINE
8
CentreLine
10
227.01
20
-82.90
30
 97.69
11
224.94
21
-84.76
31
 92.87
0
LINE
8
CentreLine
10
224.94
20
-84.76
30
 92.87
11
223.96
21
-86.16
31
 80.74
0
LINE
8
CentreLine
10
223.96
20
-86.16
30
 80.74
11
219.86
21
-87.65
31
 49.69
0
LINE
8
CentreLine
10
219.86
20
-87.65
30
 49.69
11
224.68
21
-101.64
31
 62.10
0
LINE
8
CentreLine
10
251.77
20
-54.74
30
227.76
11
246.73
21
-57.89
31
221.39
0
LINE
8
CentreLine
10
246.73
20
-57.89
30
221.39
11
245.17
21
-60.84
31
216.45
0
LINE
8
CentreLine
10
245.17
20
-60.84
30
216.45
11
243.19
21
-67.32
31
212.05
0
LINE
8
CentreLine
10
251.77
20
-54.74
30
227.76
11
248.29
21
-60.31
31
229.89
0
LINE
8
CentreLine
10
248.29
20
-60.31
30
229.89
11
244.72
21
-66.77
31
225.10
0
LINE
8
CentreLine
10
244.72
20
-66.77
30
225.10
11
242.18
21
-68.00
31
223.27
0
LINE
8
CentreLine
10
265.03
20
-33.13
30
235.11
11
276.63
21
-36.24
31
235.11
0
LINE
8
CentreLine
10
169.74
20
 -3.32
30
314.24
11
175.40
21
 -7.28
31
311.31
0
LINE
8
CentreLine
10
175.40
20
 -7.28
30
311.31
11
176.73
21
 -8.21
31
311.31
0
LINE
8
CentreLine
10
176.73
20
 -8.21
30
311.31
11
185.98
21
-10.69
31
281.82
0
LINE
8
CentreLine
10
185.98
20
-10.69
30
281.82
11
190.24
21
 -9.14
31
253.19
0
LINE
8
CentreLine
10
190.24
20
 -9.14
30
253.19
11
193.87
21
 -0.14
31
248.67
0
LINE
8
CentreLine
10
193.87
20
 -0.14
30
248.67
11
193.87
21
 -0.14
31
276.36
0
LINE
8
CentreLine
10
193.87
20
 -0.14
30
276.36
11
195.00
21
  1.81
31
279.96
0
LINE
8
CentreLine
10
195.00
20
  1.81
30
279.96
11
202.43
21
 14.17
31
297.15
0
LINE
8
CentreLine
10
202.43
20
 14.17
30
297.15
11
203.58
21
 13.02
31
297.50
0
LINE
8
CentreLine
10
 14.38
20
133.11
30
255.86
11
 19.45
21
153.44
31
251.03
0
LINE
8
CentreLine
10
 19.45
20
153.44
30
251.03
11
 23.17
21
157.43
31
247.88
0
LINE
8
CentreLine
10
 23.17
20
157.43
30
247.88
11
 23.17
21
157.43
31
246.07
0
LINE
8
CentreLine
10
 23.17
20
157.43
30
246.07
11
 20.94
21
158.11
31
245.94
0
LINE
8
CentreLine
10
 20.94
20
158.11
30
245.94
11
 19.40
21
157.64
31
242.50
0
LINE
8
CentreLine
10
 19.40
20
157.64
30
242.50
11
 19.56
21
153.23
31
245.48
0
LINE
8
CentreLine
10
 19.56
20
153.23
30
245.48
11
 16.43
21
149.23
31
239.65
0
LINE
8
CentreLine
10
 16.43
20
149.23
30
239.65
11
 14.18
21
149.35
31
237.23
0
LINE
8
CentreLine
10
 14.18
20
149.35
30
237.23
11
 12.92
21
147.47
31
233.46
0
LINE
8
CentreLine
10
-97.74
20
117.71
30
210.34
11
-104.63
21
107.50
31
207.04
0
LINE
8
CentreLine
10
-104.63
20
107.50
30
207.04
11
-126.01
21
106.01
31
194.67
0
LINE
8
CentreLine
10
-97.74
20
117.71
30
210.34
11
-75.68
21
115.78
31
200.49
0
LINE
8
CentreLine
10
-75.68
20
115.78
30
200.49
11
-75.68
21
115.78
31
198.39
0
LINE
8
CentreLine
10
-75.68
20
115.78
30
198.39
11
-76.62
21
109.11
31
190.07
0
LINE
8
CentreLine
10
190.24
20
 -9.14
30
253.19
11
195.90
21
-23.88
31
240.40
0
LINE
8
CentreLine
10
195.90
20
-23.88
30
240.40
11
186.57
21
-22.23
31
239.66
0
LINE
8
CentreLine
10
186.57
20
-22.23
30
239.66
11
183.51
21
-23.56
31
236.81
0
LINE
8
CentreLine
10
183.51
20
-23.56
30
236.81
11
185.08
21
-21.48
31
235.42
0
LINE
8
CentreLine
10
185.08
20
-21.48
30
235.42
11
186.51
21
-21.63
31
233.58
0
LINE
8
CentreLine
10
186.51
20
-21.63
30
233.58
11
186.94
21
-24.86
31
232.65
0
LINE
8
CentreLine
10
186.94
20
-24.86
30
232.65
11
186.94
21
-24.86
31
228.44
0
LINE
8
CentreLine
10
186.94
20
-24.86
30
228.44
11
189.42
21
-25.03
31
228.61
0
LINE
8
CentreLine
10
189.42
20
-25.03
30
228.61
11
190.45
21
-25.08
31
227.95
0
LINE
8
CentreLine
10
190.45
20
-25.08
30
227.95
11
190.45
21
-25.08
31
222.93
0
LINE
8
CentreLine
10
190.45
20
-25.08
30
222.93
11
183.49
21
-26.95
31
220.16
0
LINE
8
CentreLine
10
183.49
20
-26.95
30
220.16
11
188.14
21
-22.30
31
217.24
0
LINE
8
CentreLine
10
188.14
20
-22.30
30
217.24
11
188.48
21
-18.36
31
212.52
0
LINE
8
CentreLine
10
188.48
20
-18.36
30
212.52
11
192.05
21
-19.65
31
209.34
0
LINE
8
CentreLine
10
192.05
20
-19.65
30
209.34
11
190.49
21
-22.99
31
204.95
0
LINE
8
CentreLine
10
190.49
20
-22.99
30
204.95
11
192.03
21
-27.23
31
199.57
0
LINE
8
CentreLine
10
192.03
20
-27.23
30
199.57
11
190.50
21
-29.89
31
192.98
0
LINE
8
CentreLine
10
190.50
20
-29.89
30
192.98
11
192.36
21
-31.96
31
186.73
0
LINE
8
CentreLine
10
192.36
20
-31.96
30
186.73
11
194.82
21
-35.90
31
181.39
0
LINE
8
CentreLine
10
194.82
20
-35.90
30
181.39
11
191.42
21
-38.19
31
174.83
0
LINE
8
CentreLine
10
191.42
20
-38.19
30
174.83
11
190.85
21
-39.78
31
173.37
0
LINE
8
CentreLine
10
190.85
20
-39.78
30
173.37
11
191.89
21
-41.83
31
171.14
0
LINE
8
CentreLine
10
191.89
20
-41.83
30
171.14
11
187.13
21
-42.76
31
168.98
0
LINE
8
CentreLine
10
187.13
20
-42.76
30
168.98
11
186.17
21
-44.63
31
167.28
0
LINE
8
CentreLine
10
186.17
20
-44.63
30
167.28
11
188.62
21
-46.76
31
164.93
0
LINE
8
CentreLine
10
188.62
20
-46.76
30
164.93
11
191.05
21
-50.23
31
164.02
0
LINE
8
CentreLine
10
 36.04
20
116.09
30
277.81
11
 36.73
21
120.04
31
277.46
0
LINE
8
CentreLine
10
 36.73
20
120.04
30
277.46
11
 35.55
21
121.03
31
270.78
0
LINE
8
CentreLine
10
 35.55
20
121.03
30
270.78
11
 34.10
21
117.61
31
264.34
0
LINE
8
CentreLine
10
 34.10
20
117.61
30
264.34
11
 36.98
21
114.18
31
262.88
0
LINE
8
CentreLine
10
 36.98
20
114.18
30
262.88
11
 36.98
21
114.18
31
250.38
0
LINE
8
CentreLine
10
 34.10
20
117.61
30
264.34
11
 27.77
21
128.14
31
255.73
0
LINE
8
CentreLine
10
 84.28
20
 55.48
30
301.93
11
 86.43
21
 62.51
31
299.82
0
LINE
8
CentreLine
10
 86.43
20
 62.51
30
299.82
11
 88.74
21
 64.66
31
298.86
0
LINE
8
CentreLine
10
 88.74
20
 64.66
30
298.86
11
 88.74
21
 64.66
31
270.71
0
LINE
8
CentreLine
10
 88.74
20
 64.66
30
270.71
11
 84.88
21
 61.86
31
267.49
0
LINE
8
CentreLine
10
 84.88
20
 61.86
30
267.49
11
 82.31
21
 62.60
31
266.25
0
LINE
8
CentreLine
10
-97.77
20
138.60
30
198.30
11
-92.49
21
139.82
31
198.96
0
LINE
8
CentreLine
10
-92.49
20
139.82
30
198.96
11
-90.56
21
140.19
31
198.21
0
LINE
8
CentreLine
10
-90.56
20
140.19
30
198.21
11
-89.76
21
140.77
31
201.24
0
LINE
8
CentreLine
10
-89.76
20
140.77
30
201.24
11
-90.25
21
142.46
31
201.36
0
LINE
8
CentreLine
10
-90.25
20
142.46
30
201.36
11
-85.00
21
147.36
31
199.57
0
LINE
8
CentreLine
10
-85.00
20
147.36
30
199.57
11
-80.02
21
143.87
31
200.43
0
LINE
8
CentreLine
10
-85.00
20
147.36
30
199.57
11
-85.00
21
147.36
31
218.07
0
LINE
8
CentreLine
10
-90.25
20
142.46
30
201.36
11
-92.49
21
145.33
31
204.01
0
LINE
8
CentreLine
10
-92.49
20
145.33
30
204.01
11
-92.49
21
145.33
31
207.83
0
LINE
8
CentreLine
10
138.95
20
  5.34
30
301.60
11
134.05
21
  7.83
31
301.60
0
LINE
8
CentreLine
10
134.05
20
  7.83
30
301.60
11
133.96
21
  2.73
31
300.61
0
LINE
8
CentreLine
10
133.96
20
  2.73
30
300.61
11
133.96
21
  2.73
31
315.11
0
LINE
8
CentreLine
10
133.96
20
  2.73
30
315.11
11
134.76
21
  0.62
31
316.36
0
LINE
8
CentreLine
10
134.76
20
  0.62
30
316.36
11
131.87
21
 -3.36
31
312.37
0
LINE
8
CentreLine
10
131.87
20
 -3.36
30
312.37
11
131.32
21
-11.14
31
300.80
0
LINE
8
CentreLine
10
-22.10
20
133.57
30
244.88
11
-15.04
21
133.45
31
244.39
0
LINE
8
CentreLine
10
-15.04
20
133.45
30
244.39
11
-18.43
21
121.63
31
221.25
0
LINE
8
CentreLine
10
-18.43
20
121.63
30
221.25
11
-12.98
21
123.61
31
219.70
0
LINE
8
CentreLine
10
-12.98
20
123.61
30
219.70
11
-11.91
21
119.86
31
218.80
0
LINE
8
CentreLine
10
-11.91
20
119.86
30
218.80
11
-10.16
21
118.12
31
218.41
0
LINE
8
CentreLine
10
-10.16
20
118.12
30
218.41
11
 -9.75
21
118.04
31
219.95
0
LINE
8
CentreLine
10
 -9.75
20
118.04
30
219.95
11
 -7.17
21
116.55
31
220.22
0
LINE
8
CentreLine
10
 -7.17
20
116.55
30
220.22
11
 -7.17
21
116.55
31
207.32
0
LINE
8
CentreLine
10
 -7.17
20
116.55
30
207.32
11
-13.87
21
125.77
31
211.69
0
LINE
8
CentreLine
10
-13.87
20
125.77
30
211.69
11
-16.95
21
123.77
31
210.50
0
LINE
8
CentreLine
10
-16.95
20
123.77
30
210.50
11
-16.95
21
123.77
31
187.75
0
LINE
8
CentreLine
10
-16.95
20
123.77
30
187.75
11
-19.38
21
120.88
31
179.65
0
LINE
8
CentreLine
10
-19.38
20
120.88
30
179.65
11
-15.84
21
119.59
31
179.12
0
LINE
8
CentreLine
10
-15.84
20
119.59
30
179.12
11
-18.12
21
117.75
31
173.38
0
LINE
8
CentreLine
10
-18.12
20
117.75
30
173.38
11
-18.12
21
117.75
31
145.23
0
LINE
8
CentreLine
10
-18.12
20
117.75
30
145.23
11
-18.12
21
117.75
31
128.62
0
LINE
8
CentreLine
10
-18.12
20
117.75
30
128.62
11
-21.77
21
109.91
31
136.14
0
LINE
8
CentreLine
10
-21.77
20
109.91
30
136.14
11
-18.25
21
107.87
31
137.54
0
LINE
8
CentreLine
10
-18.25
20
107.87
30
137.54
11
-19.53
21
 99.84
31
136.68
0
LINE
8
CentreLine
10
-19.53
20
 99.84
30
136.68
11
-19.53
21
 99.84
31
116.75
0
LINE
8
CentreLine
10
-18.12
20
117.75
30
128.62
11
-16.35
21
114.80
31
128.62
0
LINE
8
CentreLine
10
-16.35
20
114.80
30
128.62
11
-16.53
21
113.92
31
127.51
0
LINE
8
CentreLine
10
-16.53
20
113.92
30
127.51
11
-16.53
21
113.92
31
113.19
0
LINE
8
CentreLine
10
-19.53
20
 99.84
30
136.68
11
-20.49
21
101.51
31
136.02
0
LINE
8
CentreLine
10
-20.49
20
101.51
30
136.02
11
-18.62
21
100.47
31
134.97
0
LINE
8
CentreLine
10
-18.62
20
100.47
30
134.97
11
-17.92
21
101.68
31
132.74
0
LINE
8
CentreLine
10
-17.92
20
101.68
30
132.74
11
-15.73
21
102.70
31
129.85
0
LINE
8
CentreLine
10
-15.73
20
102.70
30
129.85
11
-15.96
21
102.98
31
125.74
0
LINE
8
CentreLine
10
-15.96
20
102.98
30
125.74
11
-11.20
21
100.12
31
122.79
0
LINE
8
CentreLine
10
-11.20
20
100.12
30
122.79
11
-11.20
21
100.12
31
114.63
0
LINE
8
CentreLine
10
-11.20
20
100.12
30
114.63
11
-12.31
21
101.02
31
115.87
0
LINE
8
CentreLine
10
-12.31
20
101.02
30
115.87
11
 -6.78
21
 97.95
31
118.42
0
LINE
8
CentreLine
10
-11.20
20
100.12
30
114.63
11
-15.18
21
 97.55
31
115.64
0
LINE
8
CentreLine
10
-11.20
20
100.12
30
114.63
11
-15.12
21
102.76
31
114.30
0
LINE
8
CentreLine
10
-19.53
20
 99.84
30
136.68
11
-17.39
21
 99.61
31
137.34
0
LINE
8
CentreLine
10
-17.39
20
 99.61
30
137.34
11
-15.92
21
 96.97
31
137.50
0
LINE
8
CentreLine
10
 84.28
20
 55.48
30
301.93
11
 87.13
21
 59.88
31
302.21
0
LINE
8
CentreLine
10
 87.13
20
 59.88
30
302.21
11
 79.84
21
 74.20
31
295.05
0
LINE
8
CentreLine
10
 79.84
20
 74.20
30
295.05
11
 80.92
21
 68.61
31
289.91
0
LINE
8
CentreLine
10
 80.92
20
 68.61
30
289.91
11
 80.48
21
 68.89
31
287.81
0
LINE
8
CentreLine
10
 80.48
20
 68.89
30
287.81
11
 78.70
21
 67.95
31
287.12
0
LINE
8
CentreLine
10
 78.70
20
 67.95
30
287.12
11
 78.70
21
 67.95
31
275.37
0
LINE
8
CentreLine
10
 78.70
20
 67.95
30
275.37
11
 75.19
21
 65.30
31
275.44
0
LINE
8
CentreLine
10
 75.19
20
 65.30
30
275.44
11
 75.19
21
 65.30
31
259.48
0
LINE
8
CentreLine
10
 75.19
20
 65.30
30
259.48
11
 75.19
21
 65.30
31
211.28
0
LINE
8
CentreLine
10
 75.19
20
 65.30
30
211.28
11
 72.28
21
 62.86
31
207.74
0
LINE
8
CentreLine
10
 72.28
20
 62.86
30
207.74
11
 74.60
21
 50.93
31
211.92
0
LINE
8
CentreLine
10
 74.60
20
 50.93
30
211.92
11
 73.09
21
 48.93
31
212.23
0
LINE
8
CentreLine
10
 73.09
20
 48.93
30
212.23
11
 72.63
21
 48.27
31
210.71
0
LINE
8
CentreLine
10
 72.63
20
 48.27
30
210.71
11
 71.88
21
 46.75
31
206.05
0
LINE
8
CentreLine
10
 71.88
20
 46.75
30
206.05
11
 70.97
21
 46.41
31
201.06
0
LINE
8
CentreLine
10
 70.97
20
 46.41
30
201.06
11
 68.43
21
 44.76
31
192.73
0
LINE
8
CentreLine
10
 68.43
20
 44.76
30
192.73
11
 65.73
21
 43.14
31
190.84
0
LINE
8
CentreLine
10
 65.73
20
 43.14
30
190.84
11
 64.32
21
 43.96
31
185.81
0
LINE
8
CentreLine
10
 64.32
20
 43.96
30
185.81
11
 64.28
21
 43.40
31
175.23
0
LINE
8
CentreLine
10
 64.28
20
 43.40
30
175.23
11
 64.28
21
 43.40
31
120.63
0
LINE
8
CentreLine
10
 64.28
20
 43.40
30
120.63
11
 61.69
21
 42.51
31
121.85
0
LINE
8
CentreLine
10
 61.69
20
 42.51
30
121.85
11
 54.49
21
 43.78
31
120.82
0
LINE
8
CentreLine
10
 54.49
20
 43.78
30
120.82
11
 53.46
21
 46.10
31
120.95
0
LINE
8
CentreLine
10
 53.46
20
 46.10
30
120.95
11
 51.93
21
 47.69
31
118.97
0
LINE
8
CentreLine
10
 51.93
20
 47.69
30
118.97
11
 48.27
21
 48.73
31
116.86
0
LINE
8
CentreLine
10
 48.27
20
 48.73
30
116.86
11
 47.43
21
 47.34
31
117.14
0
LINE
8
CentreLine
10
 47.43
20
 47.34
30
117.14
11
 42.62
21
 48.72
31
117.67
0
LINE
8
CentreLine
10
 42.62
20
 48.72
30
117.67
11
 35.66
21
 52.27
31
116.71
0
LINE
8
CentreLine
10
 35.66
20
 52.27
30
116.71
11
 35.22
21
 60.83
31
116.71
0
LINE
8
CentreLine
10
 35.22
20
 60.83
30
116.71
11
 47.59
21
 60.19
31
121.72
0
LINE
8
CentreLine
10
 47.59
20
 60.19
30
121.72
11
 45.66
21
 65.82
31
117.39
0
LINE
8
CentreLine
10
 45.66
20
 65.82
30
117.39
11
 45.66
21
 65.82
31
112.59
0
LINE
8
CentreLine
10
 35.22
20
 60.83
30
116.71
11
 33.21
21
 60.26
31
115.91
0
LINE
8
CentreLine
10
 33.21
20
 60.26
30
115.91
11
 33.00
21
 54.43
31
106.57
0
LINE
8
CentreLine
10
 33.00
20
 54.43
30
106.57
11
 33.00
21
 54.43
31
 77.56
0
LINE
8
CentreLine
10
 42.62
20
 48.72
30
117.67
11
 37.59
21
 52.65
31
113.36
0
LINE
8
CentreLine
10
 37.59
20
 52.65
30
113.36
11
 35.03
21
 54.80
31
110.71
0
LINE
8
CentreLine
10
 35.03
20
 54.80
30
110.71
11
 35.03
21
 54.80
31
 76.61
0
LINE
8
CentreLine
10
 35.03
20
 54.80
30
 76.61
11
 28.10
21
 52.74
31
 79.53
0
LINE
8
CentreLine
10
 28.10
20
 52.74
30
 79.53
11
 27.94
21
 48.10
31
 76.84
0
LINE
8
CentreLine
10
 27.94
20
 48.10
30
 76.84
11
 31.99
21
 45.57
31
 77.95
0
LINE
8
CentreLine
10
 31.99
20
 45.57
30
 77.95
11
 30.84
21
 43.58
31
 78.48
0
LINE
8
CentreLine
10
 31.99
20
 45.57
30
 77.95
11
 32.27
21
 41.55
31
 77.16
0
LINE
8
CentreLine
10
 32.27
20
 41.55
30
 77.16
11
 33.09
21
 40.57
31
 77.03
0
LINE
8
CentreLine
10
 33.09
20
 40.57
30
 77.03
11
 33.09
21
 40.57
31
 78.63
0
LINE
8
CentreLine
10
 33.09
20
 40.57
30
 78.63
11
 36.80
21
 38.68
31
 76.86
0
LINE
8
CentreLine
10
 36.80
20
 38.68
30
 76.86
11
 38.00
21
 36.21
31
 77.92
0
LINE
8
CentreLine
10
 38.00
20
 36.21
30
 77.92
11
 39.90
21
 35.45
31
 78.58
0
LINE
8
CentreLine
10
 39.90
20
 35.45
30
 78.58
11
 39.79
21
 33.31
31
 78.77
0
LINE
8
CentreLine
10
 39.79
20
 33.31
30
 78.77
11
 46.03
21
 27.88
31
 79.78
0
LINE
8
CentreLine
10
 46.03
20
 27.88
30
 79.78
11
 48.29
21
 26.11
31
 79.33
0
LINE
8
CentreLine
10
 48.29
20
 26.11
30
 79.33
11
 49.93
21
 24.17
31
 77.74
0
LINE
8
CentreLine
10
 49.93
20
 24.17
30
 77.74
11
 50.99
21
 23.73
31
 78.41
0
LINE
8
CentreLine
10
 50.99
20
 23.73
30
 78.41
11
 50.09
21
 22.83
31
 73.28
0
LINE
8
CentreLine
10
 50.09
20
 22.83
30
 73.28
11
 54.78
21
 19.54
31
 37.11
0
LINE
8
CentreLine
10
 54.78
20
 19.54
30
 37.11
11
 57.77
21
 20.94
31
 37.94
0
LINE
8
CentreLine
10
 57.77
20
 20.94
30
 37.94
11
 60.67
21
 15.71
31
 32.74
0
LINE
8
CentreLine
10
 60.67
20
 15.71
30
 32.74
11
 65.62
21
 13.30
31
 34.85
0
LINE
8
CentreLine
10
 65.62
20
 13.30
30
 34.85
11
 69.78
21
  8.99
31
 31.93
0
LINE
8
CentreLine
10
 69.78
20
  8.99
30
 31.93
11
 69.78
21
  8.99
31
  4.02
0
LINE
8
CentreLine
10
 69.78
20
  8.99
30
  4.02
11
 73.34
21
  7.33
31
  5.85
0
LINE
8
CentreLine
10
 73.34
20
  7.33
30
  5.85
11
 81.19
21
 10.83
31
  5.85
0
LINE
8
CentreLine
10
 69.78
20
  8.99
30
  4.02
11
 65.48
21
 10.47
31
  3.71
0
LINE
8
CentreLine
10
 65.48
20
 10.47
30
  3.71
11
 65.48
21
 10.47
31
-28.41
0
LINE
8
CentreLine
10
 65.48
20
 10.47
30
-28.41
11
 65.48
21
 10.47
31
-79.11
0
LINE
8
CentreLine
10
 65.48
20
 10.47
30
-79.11
11
 70.57
21
 12.13
31
-81.06
0
LINE
8
CentreLine
10
 70.57
20
 12.13
30
-81.06
11
 70.57
21
 12.13
31
-91.06
0
LINE
8
CentreLine
10
 65.48
20
 10.47
30
-79.11
11
 61.41
21
  5.62
31
-76.02
0
LINE
8
CentreLine
10
 61.41
20
  5.62
30
-76.02
11
 58.44
21
  0.04
31
-76.91
0
LINE
8
CentreLine
10
 58.44
20
  0.04
30
-76.91
11
 58.44
21
  0.04
31
-86.91
0
LINE
8
CentreLine
10
-107.04
20
 92.23
30
 29.76
11
-103.89
21
 87.19
31
 32.79
0
LINE
8
CentreLine
10
-103.89
20
 87.19
30
 32.79
11
-100.98
21
 87.65
31
 33.42
0
LINE
8
CentreLine
10
-100.98
20
 87.65
30
 33.42
11
-93.83
21
 79.71
31
 20.22
0
LINE
8
CentreLine
10
-93.83
20
 79.71
30
 20.22
11
-100.25
21
 58.71
31
 24.49
0
LINE
8
CentreLine
10
-100.25
20
 58.71
30
 24.49
11
-95.38
21
 55.78
31
 28.18
0
LINE
8
CentreLine
10
-99.93
20
 50.49
30
-52.06
11
-97.09
21
 48.85
31
-51.06
0
LINE
8
CentreLine
10
-97.09
20
 48.85
30
-51.06
11
-103.26
21
 56.46
31
-47.87
0
LINE
8
CentreLine
10
-103.26
20
 56.46
30
-47.87
11
-102.52
21
 60.64
31
-47.87
0
LINE
8
CentreLine
10
-102.52
20
 60.64
30
-47.87
11
-100.59
21
 62.79
31
-47.87
0
LINE
8
CentreLine
10
-100.59
20
 62.79
30
-47.87
11
-99.77
21
 65.04
31
-48.75
0
LINE
8
CentreLine
10
-99.77
20
 65.04
30
-48.75
11
-101.80
21
 66.69
31
-50.65
0
LINE
8
CentreLine
10
-101.80
20
 66.69
30
-50.65
11
-101.71
21
 69.32
31
-51.60
0
LINE
8
CentreLine
10
-101.71
20
 69.32
30
-51.60
11
-102.17
21
 74.66
31
-52.45
0
LINE
8
CentreLine
10
-102.17
20
 74.66
30
-52.45
11
-102.99
21
 75.79
31
-52.60
0
LINE
8
CentreLine
10
-102.99
20
 75.79
30
-52.60
11
-105.97
21
 82.48
31
-52.21
0
LINE
8
CentreLine
10
-105.97
20
 82.48
30
-52.21
11
-105.27
21
 86.49
31
-53.00
0
LINE
8
CentreLine
10
-105.27
20
 86.49
30
-53.00
11
-106.36
21
 87.40
31
-53.26
0
LINE
8
CentreLine
10
-106.36
20
 87.40
30
-53.26
11
-105.80
21
 92.01
31
-51.29
0
LINE
8
CentreLine
10
-105.80
20
 92.01
30
-51.29
11
-106.62
21
101.38
31
-49.29
0
LINE
8
CentreLine
10
-91.04
20
-15.99
30
-85.59
11
-91.04
21
-15.99
31
-80.34
0
LINE
8
CentreLine
10
-91.04
20
-15.99
30
-80.34
11
-89.11
21
-16.85
31
-79.31
0
LINE
8
CentreLine
10
-89.11
20
-16.85
30
-79.31
11
-81.15
21
-11.48
31
-78.98
0
LINE
8
CentreLine
10
-81.15
20
-11.48
30
-78.98
11
-83.05
21
 -9.44
31
-79.27
0
LINE
8
CentreLine
10
-83.05
20
 -9.44
30
-79.27
11
-77.70
21
 -4.44
31
-78.37
0
LINE
8
CentreLine
10
-77.70
20
 -4.44
30
-78.37
11
-75.67
21
  5.11
31
-81.73
0
LINE
8
CentreLine
10
-75.67
20
  5.11
30
-81.73
11
-79.45
21
  9.32
31
-80.43
0
LINE
8
CentreLine
10
-79.45
20
  9.32
30
-80.43
11
-74.88
21
 23.41
31
-79.65
0
LINE
8
CentreLine
10
-74.88
20
 23.41
30
-79.65
11
-68.05
21
 28.01
31
-80.08
0
LINE
8
CentreLine
10
-68.05
20
 28.01
30
-80.08
11
-63.47
21
 27.69
31
-80.97
0
LINE
8
CentreLine
10
-63.47
20
 27.69
30
-80.97
11
-64.34
21
 29.95
31
-81.90
0
LINE
8
CentreLine
10
-64.34
20
 29.95
30
-81.90
11
-63.40
21
 33.72
31
-84.62
0
LINE
8
CentreLine
10
-63.40
20
 33.72
30
-84.62
11
-58.81
21
 39.00
31
-84.50
0
LINE
8
CentreLine
10
-58.81
20
 39.00
30
-84.50
11
-59.53
21
 47.19
31
-84.79
0
LINE
8
CentreLine
10
-59.53
20
 47.19
30
-84.79
11
-60.99
21
 46.88
31
-86.51
0
LINE
8
CentreLine
10
-60.99
20
 46.88
30
-86.51
11
-59.43
21
 40.11
31
-86.87
0
LINE
8
CentreLine
10
-59.43
20
 40.11
30
-86.87
11
-61.71
21
 39.79
31
-87.11
0
LINE
8
CentreLine
10
-61.71
20
 39.79
30
-87.11
11
-61.71
21
 39.79
31
-108.89
0
LINE
8
CentreLine
10
-61.71
20
 39.79
30
-108.89
11
-51.71
21
 41.02
31
-103.98
0
LINE
8
CentreLine
10
-51.71
20
 41.02
30
-103.98
11
-49.87
21
 47.43
31
-102.19
0
LINE
8
CentreLine
10
-51.71
20
 41.02
30
-103.98
11
-49.24
21
 37.61
31
-107.27
0
LINE
8
CentreLine
10
-49.24
20
 37.61
30
-107.27
11
-49.03
21
 35.68
31
-110.38
0
LINE
8
CentreLine
10
-49.03
20
 35.68
30
-110.38
11
-48.22
21
 33.30
31
-110.64
0
LINE
8
CentreLine
10
-48.22
20
 33.30
30
-110.64
11
-44.52
21
 31.73
31
-111.80
0
LINE
8
CentreLine
10
-44.52
20
 31.73
30
-111.80
11
-43.37
21
 27.73
31
-112.60
0
LINE
8
CentreLine
10
-43.37
20
 27.73
30
-112.60
11
-41.49
21
 24.03
31
-113.26
0
LINE
8
CentreLine
10
-41.49
20
 24.03
30
-113.26
11
-41.56
21
 21.97
31
-111.97
0
LINE
8
CentreLine
10
-41.56
20
 21.97
30
-111.97
11
-39.67
21
 20.93
31
-112.28
0
LINE
8
CentreLine
10
-39.67
20
 20.93
30
-112.28
11
-37.43
21
 16.33
31
-112.72
0
LINE
8
CentreLine
10
-37.43
20
 16.33
30
-112.72
11
-43.00
21
 14.74
31
-116.34
0
LINE
8
CentreLine
10
-41.56
20
 21.97
30
-111.97
11
-39.36
21
 21.00
31
-112.44
0
LINE
8
CentreLine
10
-39.36
20
 21.00
30
-112.44
11
-38.20
21
 15.54
31
-114.36
0
LINE
8
CentreLine
10
-38.20
20
 15.54
30
-114.36
11
-38.54
21
 16.07
31
-115.11
0
LINE
8
CentreLine
10
-38.54
20
 16.07
30
-115.11
11
-41.25
21
 14.81
31
-116.77
0
LINE
8
CentreLine
10
-41.25
20
 14.81
30
-116.77
11
-46.17
21
 14.55
31
-119.07
0
LINE
8
CentreLine
10
-46.17
20
 14.55
30
-119.07
11
-48.48
21
 15.21
31
-119.89
0
LINE
8
CentreLine
10
-37.43
20
 16.33
30
-112.72
11
-34.81
21
 16.66
31
-111.08
0
LINE
8
CentreLine
10
-34.81
20
 16.66
30
-111.08
11
-33.50
21
 15.77
31
-112.31
0
LINE
8
CentreLine
10
-33.50
20
 15.77
30
-112.31
11
-28.41
21
 14.78
31
-113.32
0
LINE
8
CentreLine
10
-28.41
20
 14.78
30
-113.32
11
-28.91
21
 12.76
31
-116.65
0
LINE
8
CentreLine
10
-28.91
20
 12.76
30
-116.65
11
-28.91
21
 12.76
31
-121.28
0
LINE
8
CentreLine
10
-28.91
20
 12.76
30
-121.28
11
-22.92
21
 10.81
31
-120.95
0
LINE
8
CentreLine
10
-22.92
20
 10.81
30
-120.95
11
-18.56
21
  7.53
31
-123.86
0
LINE
8
CentreLine
10
-18.56
20
  7.53
30
-123.86
11
-18.37
21
  3.73
31
-121.39
0
LINE
8
CentreLine
10
-18.37
20
  3.73
30
-121.39
11
-16.62
21
  1.34
31
-119.68
0
LINE
8
CentreLine
10
-16.62
20
  1.34
30
-119.68
11
-13.34
21
 -6.04
31
-124.34
0
LINE
8
CentreLine
10
-13.34
20
 -6.04
30
-124.34
11
 -6.87
21
-10.09
31
-136.09
0
LINE
8
CentreLine
10
 -6.87
20
-10.09
30
-136.09
11
-14.22
21
-12.48
31
-138.76
0
LINE
8
CentreLine
10
-14.22
20
-12.48
30
-138.76
11
-13.51
21
-11.34
31
-140.61
0
LINE
8
CentreLine
10
-13.51
20
-11.34
30
-140.61
11
-16.16
21
-10.21
31
-140.61
0
LINE
8
CentreLine
10
-16.16
20
-10.21
30
-140.61
11
-16.16
21
-10.21
31
-142.40
0
LINE
8
CentreLine
10
-16.16
20
-10.21
30
-142.40
11
-19.13
21
 -9.07
31
-143.68
0
LINE
8
CentreLine
10
-19.13
20
 -9.07
30
-143.68
11
-18.29
21
 -4.29
31
-143.60
0
LINE
8
CentreLine
10
-18.29
20
 -4.29
30
-143.60
11
-16.00
21
 -1.76
31
-144.77
0
LINE
8
CentreLine
10
-16.00
20
 -1.76
30
-144.77
11
-21.32
21
  3.03
31
-148.58
0
LINE
8
CentreLine
10
-21.32
20
  3.03
30
-148.58
11
-25.22
21
  3.44
31
-149.41
0
LINE
8
CentreLine
10
-25.22
20
  3.44
30
-149.41
11
-27.03
21
  4.67
31
-150.89
0
LINE
8
CentreLine
10
-27.03
20
  4.67
30
-150.89
11
-31.44
21
  5.68
31
-152.19
0
LINE
8
CentreLine
10
-31.44
20
  5.68
30
-152.19
11
-37.97
21
  7.68
31
-155.82
0
LINE
8
CentreLine
10
-37.97
20
  7.68
30
-155.82
11
-51.48
21
 11.05
31
-155.57
0
LINE
8
CentreLine
10
-51.48
20
 11.05
30
-155.57
11
-55.08
21
 10.54
31
-157.04
0
LINE
8
CentreLine
10
-61.71
20
 39.79
30
-108.89
11
-59.15
21
 41.09
31
-109.09
0
LINE
8
CentreLine
10
-59.15
20
 41.09
30
-109.09
11
-55.99
21
 43.15
31
-112.61
0
LINE
8
CentreLine
10
-55.99
20
 43.15
30
-112.61
11
-55.99
21
 43.15
31
-138.42
0
LINE
8
CentreLine
10
-55.99
20
 43.15
30
-138.42
11
-61.39
21
 34.51
31
-138.59
0
LINE
8
CentreLine
10
-61.39
20
 34.51
30
-138.59
11
-69.66
21
 32.60
31
-146.24
0
LINE
8
CentreLine
10
-69.66
20
 32.60
30
-146.24
11
-79.79
21
 34.93
31
-160.54
0
LINE
8
CentreLine
10
-79.79
20
 34.93
30
-160.54
11
-91.66
21
 35.14
31
-164.17
0
LINE
8
CentreLine
10
-91.66
20
 35.14
30
-164.17
11
-95.17
21
 36.56
31
-169.19
0
LINE
8
CentreLine
10
-95.17
20
 36.56
30
-169.19
11
-95.17
21
 36.56
31
-194.34
0
LINE
8
CentreLine
10
-95.17
20
 36.56
30
-194.34
11
-98.47
21
 36.96
31
-197.78
0
LINE
8
CentreLine
10
-98.47
20
 36.96
30
-197.78
11
-102.22
21
 33.93
31
-199.64
0
LINE
8
CentreLine
10
-102.22
20
 33.93
30
-199.64
11
-107.25
21
 36.49
31
-201.26
0
LINE
8
CentreLine
10
-107.25
20
 36.49
30
-201.26
11
-113.61
21
 38.68
31
-203.18
0
LINE
8
CentreLine
10
-113.61
20
 38.68
30
-203.18
11
-115.96
21
 39.88
31
-204.09
0
LINE
8
CentreLine
10
-115.96
20
 39.88
30
-204.09
11
-117.97
21
 41.51
31
-205.71
0
LINE
8
CentreLine
10
-117.97
20
 41.51
30
-205.71
11
-117.05
21
 44.70
31
-212.51
0
LINE
8
CentreLine
10
-117.05
20
 44.70
30
-212.51
11
-119.74
21
 35.91
31
-215.32
0
LINE
8
CentreLine
10
-113.61
20
 38.68
30
-203.18
11
-115.97
21
 34.74
31
-201.04
0
LINE
8
CentreLine
10
-110.43
20
-58.33
30
-161.75
11
-114.11
21
-67.90
31
-165.08
0
LINE
8
CentreLine
10
-114.11
20
-67.90
30
-165.08
11
-115.11
21
-69.51
31
-165.28
0
LINE
8
CentreLine
10
-115.11
20
-69.51
30
-165.28
11
-118.92
21
-73.59
31
-166.06
0
LINE
8
CentreLine
10
-118.92
20
-73.59
30
-166.06
11
-119.47
21
-77.54
31
-166.98
0
LINE
8
CentreLine
10
-119.47
20
-77.54
30
-166.98
11
-119.47
21
-77.54
31
-168.52
0
LINE
8
CentreLine
10
-119.47
20
-77.54
30
-168.52
11
-122.19
21
-78.21
31
-169.12
0
LINE
8
CentreLine
10
-122.19
20
-78.21
30
-169.12
11
-123.60
21
-83.90
31
-170.15
0
LINE
8
CentreLine
10
-123.60
20
-83.90
30
-170.15
11
-124.66
21
-85.08
31
-170.37
0
LINE
8
CentreLine
10
-124.66
20
-85.08
30
-170.37
11
-125.53
21
-86.77
31
-170.64
0
LINE
8
CentreLine
10
-125.53
20
-86.77
30
-170.64
11
-125.53
21
-86.77
31
-175.54
0
LINE
8
CentreLine
10
-125.53
20
-86.77
30
-175.54
11
-124.54
21
-90.01
31
-175.72
0
LINE
8
CentreLine
10
-124.54
20
-90.01
30
-175.72
11
-128.86
21
-90.08
31
-176.17
0
LINE
8
CentreLine
10
-128.86
20
-90.08
30
-176.17
11
-130.15
21
-91.42
31
-176.30
0
LINE
8
CentreLine
10
-130.15
20
-91.42
30
-176.30
11
-131.45
21
-90.67
31
-176.65
0
LINE
8
CentreLine
10
-131.45
20
-90.67
30
-176.65
11
-133.54
21
-92.48
31
-176.79
0
LINE
8
CentreLine
10
-133.54
20
-92.48
30
-176.79
11
-133.54
21
-92.48
31
-179.03
0
LINE
8
CentreLine
10
-133.54
20
-92.48
30
-179.03
11
-138.04
21
-89.33
31
-179.22
0
LINE
8
CentreLine
10
-138.04
20
-89.33
30
-179.22
11
-143.20
21
-83.98
31
-180.80
0
LINE
8
CentreLine
10
-167.38
20
-52.14
30
-204.53
11
-174.55
21
-54.33
31
-224.04
0
LINE
8
CentreLine
10
-174.55
20
-54.33
30
-224.04
11
-173.76
21
-59.30
31
-231.50
0
LINE
8
CentreLine
10
-173.76
20
-59.30
30
-231.50
11
-178.84
21
-64.04
31
-238.70
0
LINE
8
CentreLine
10
-178.84
20
-64.04
30
-238.70
11
-183.51
21
-65.21
31
-244.05
0
LINE
8
CentreLine
10
-183.51
20
-65.21
30
-244.05
11
-186.97
21
-62.60
31
-245.88
0
LINE
8
CentreLine
10
-186.97
20
-62.60
30
-245.88
11
-190.85
21
-62.47
31
-247.95
0
LINE
8
CentreLine
10
-190.85
20
-62.47
30
-247.95
11
-192.71
21
-64.20
31
-249.54
0
LINE
8
CentreLine
10
-192.71
20
-64.20
30
-249.54
11
-192.71
21
-64.20
31
-253.84
0
LINE
8
CentreLine
10
-192.71
20
-64.20
30
-253.84
11
-196.68
21
-67.41
31
-255.60
0
LINE
8
CentreLine
10
-196.68
20
-67.41
30
-255.60
11
-199.47
21
-66.82
31
-256.10
0
LINE
8
CentreLine
10
-199.47
20
-66.82
30
-256.10
11
-201.05
21
-67.66
31
-256.29
0
LINE
8
CentreLine
10
-201.05
20
-67.66
30
-256.29
11
-201.08
21
-69.06
31
-256.17
0
LINE
8
CentreLine
10
-201.08
20
-69.06
30
-256.17
11
-201.34
21
-76.52
31
-259.03
0
LINE
8
CentreLine
10
-201.34
20
-76.52
30
-259.03
11
-205.90
21
-81.58
31
-261.92
0
LINE
8
CentreLine
10
-205.90
20
-81.58
30
-261.92
11
-211.53
21
-87.22
31
-266.91
0
LINE
8
CentreLine
10
-211.53
20
-87.22
30
-266.91
11
-215.99
21
-94.08
31
-275.68
0
LINE
8
CentreLine
10
-215.99
20
-94.08
30
-275.68
11
-219.50
21
-99.49
31
-286.85
0
LINE
8
CentreLine
10
-219.50
20
-99.49
30
-286.85
11
-225.23
21
-98.48
31
-291.91
0
LINE
8
CentreLine
10
-225.23
20
-98.48
30
-291.91
11
-230.37
21
-94.01
31
-294.80
0
LINE
8
CentreLine
10
-230.37
20
-94.01
30
-294.80
11
-244.27
21
-91.81
31
-323.65
0
LINE
8
CentreLine
10
-244.27
20
-91.81
30
-323.65
11
-247.14
21
-92.37
31
-322.97
0
LINE
8
CentreLine
10
-247.14
20
-92.37
30
-322.97
11
-248.55
21
-99.65
31
-336.35
0
LINE
8
CentreLine
10
-248.55
20
-99.65
30
-336.35
11
-254.67
21
-106.94
31
-342.07
0
LINE
8
CentreLine
10
-254.67
20
-106.94
30
-342.07
11
-261.77
21
-118.75
31
-342.79
0
LINE
8
CentreLine
10
-261.77
20
-118.75
30
-342.79
11
-264.62
21
-124.88
31
-345.80
0
LINE
8
CentreLine
10
-264.62
20
-124.88
30
-345.80
11
-268.23
21
-133.80
31
-351.14
0
LINE
8
CentreLine
10
-268.23
20
-133.80
30
-351.14
11
-274.22
21
-138.66
31
-355.77
0
LINE
8
CentreLine
10
-274.22
20
-138.66
30
-355.77
11
-276.30
21
-147.67
31
-367.20
0
LINE
8
CentreLine
10
-276.30
20
-147.67
30
-367.20
11
-284.32
21
-155.69
31
-374.70
0
LINE
8
CentreLine
10
-284.32
20
-155.69
30
-374.70
11
-291.11
21
-157.83
31
-384.49
0
LINE
8
CentreLine
10
-291.11
20
-157.83
30
-384.49
11
-295.96
21
-158.60
31
-392.68
0
LINE
8
CentreLine
10
-295.96
20
-158.60
30
-392.68
11
-295.96
21
-158.60
31
-403.68
0
LINE
8
CentreLine
10
-295.96
20
-158.60
30
-403.68
11
-300.67
21
-157.16
31
-410.97
0
LINE
8
CentreLine
10
-300.67
20
-157.16
30
-410.97
11
-302.27
21
-157.02
31
-414.77
0
LINE
8
CentreLine
10
-302.27
20
-157.02
30
-414.77
11
-303.78
21
-155.22
31
-416.29
0
LINE
8
CentreLine
10
-303.78
20
-155.22
30
-416.29
11
-307.04
21
-151.47
31
-426.05
0
LINE
8
CentreLine
10
-307.04
20
-151.47
30
-426.05
11
-311.31
21
-150.33
31
-429.76
0
LINE
8
CentreLine
10
-311.31
20
-150.33
30
-429.76
11
-319.33
21
-151.03
31
-448.72
0
LINE
8
CentreLine
10
-319.33
20
-151.03
30
-448.72
11
-320.51
21
-154.46
31
-451.17
0
LINE
8
CentreLine
10
-320.51
20
-154.46
30
-451.17
11
-328.18
21
-155.95
31
-464.70
0
LINE
8
CentreLine
10
-328.18
20
-155.95
30
-464.70
11
-329.77
21
-144.64
31
-469.78
0
LINE
8
CentreLine
10
-210.83
20
-81.35
30
-264.07
11
-212.71
21
-87.16
31
-272.48
0
LINE
8
CentreLine
10
-212.71
20
-87.16
30
-272.48
11
-216.31
21
-95.25
31
-278.01
0
LINE
8
CentreLine
10
-216.31
20
-95.25
30
-278.01
11
-221.60
21
-93.01
31
-292.21
0
LINE
8
CentreLine
10
-221.60
20
-93.01
30
-292.21
11
-222.31
21
-90.36
31
-290.99
0
LINE
8
CentreLine
10
-222.31
20
-90.36
30
-290.99
11
-227.01
21
-87.97
31
-294.29
0
LINE
8
CentreLine
10
-227.01
20
-87.97
30
-294.29
11
-232.94
21
-91.39
31
-312.14
0
LINE
8
CentreLine
10
-232.94
20
-91.39
30
-312.14
11
-228.89
21
-94.13
31
-312.22
0
LINE
8
CentreLine
10
-228.89
20
-94.13
30
-312.22
11
-232.54
21
-99.54
31
-324.51
0
LINE
8
CentreLine
10
-232.54
20
-99.54
30
-324.51
11
-234.88
21
-105.07
31
-329.91
0
LINE
8
CentreLine
10
-234.88
20
-105.07
30
-329.91
11
-238.36
21
-107.68
31
-341.87
0
LINE
8
CentreLine
10
-184.15
20
-63.80
30
-244.15
11
-184.50
21
-62.82
31
-245.39
0
LINE
8
CentreLine
10
-184.50
20
-62.82
30
-245.39
11
-188.67
21
-71.36
31
-249.42
0
LINE
8
CentreLine
10
-188.67
20
-71.36
30
-249.42
11
-189.37
21
-72.23
31
-250.12
0
LINE
8
CentreLine
10
-189.37
20
-72.23
30
-250.12
11
-190.56
21
-74.37
31
-251.06
0
LINE
8
CentreLine
10
-190.56
20
-74.37
30
-251.06
11
-193.03
21
-77.02
31
-251.89
0
LINE
8
CentreLine
10
-193.03
20
-77.02
30
-251.89
11
-194.91
21
-79.52
31
-254.00
0
LINE
8
CentreLine
10
-194.91
20
-79.52
30
-254.00
11
-197.68
21
-82.81
31
-256.59
0
LINE
8
CentreLine
10
-197.68
20
-82.81
30
-256.59
11
-198.87
21
-82.15
31
-256.98
0
LINE
8
CentreLine
10
-198.87
20
-82.15
30
-256.98
11
-194.51
21
-89.41
31
-257.27
0
LINE
8
CentreLine
10
-194.51
20
-89.41
30
-257.27
11
-194.51
21
-89.41
31
-259.76
0
LINE
8
CentreLine
10
-194.51
20
-89.41
30
-259.76
11
-189.96
21
-93.65
31
-260.31
0
LINE
8
CentreLine
10
-189.96
20
-93.65
30
-260.31
11
-188.28
21
-94.70
31
-261.50
0
LINE
8
CentreLine
10
-188.28
20
-94.70
30
-261.50
11
-185.47
21
-98.05
31
-261.50
0
LINE
8
CentreLine
10
-185.47
20
-98.05
30
-261.50
11
-185.47
21
-98.05
31
-260.12
0
LINE
8
CentreLine
10
-185.47
20
-98.05
30
-260.12
11
-183.90
21
-102.87
31
-263.55
0
LINE
8
CentreLine
10
-183.90
20
-102.87
30
-263.55
11
-183.90
21
-102.87
31
-275.10
0
LINE
8
CentreLine
10
-194.51
20
-89.41
30
-257.27
11
-191.51
21
-85.13
31
-256.45
0
LINE
8
CentreLine
10
-191.51
20
-85.13
30
-256.45
11
-191.51
21
-85.13
31
-246.63
0
LINE
8
CentreLine
10
-198.87
20
-82.15
30
-256.98
11
-199.44
21
-98.57
31
-268.06
0
LINE
8
CentreLine
10
-211.03
20
-69.10
30
-254.45
11
-209.43
21
-66.64
31
-251.30
0
LINE
8
CentreLine
10
-209.43
20
-66.64
30
-251.30
11
-206.36
21
-59.03
31
-241.86
0
LINE
8
CentreLine
10
-206.36
20
-59.03
30
-241.86
11
-205.24
21
-56.11
31
-240.85
0
LINE
8
CentreLine
10
-205.24
20
-56.11
30
-240.85
11
-200.64
21
-45.29
31
-224.67
0
LINE
8
CentreLine
10
-129.57
20
-16.70
30
-126.15
11
-129.57
21
-27.10
31
-126.15
0
LINE
8
CentreLine
10
-129.57
20
-27.10
30
-126.15
11
-136.62
21
-24.26
31
-126.15
0
LINE
8
CentreLine
10
-136.62
20
-24.26
30
-126.15
11
-133.57
21
-18.52
31
-126.15
0
LINE
8
CentreLine
10
-133.57
20
-18.52
30
-126.15
11
-125.48
21
-19.37
31
-128.95
0
LINE
8
CentreLine
10
-125.48
20
-19.37
30
-128.95
11
-124.20
21
-17.61
31
-129.96
0
LINE
8
CentreLine
10
-124.20
20
-17.61
30
-129.96
11
-119.31
21
-18.47
31
-131.11
0
LINE
8
CentreLine
10
-119.31
20
-18.47
30
-131.11
11
-123.67
21
-19.72
31
-145.93
0
LINE
8
CentreLine
10
-123.67
20
-19.72
30
-145.93
11
-128.33
21
-18.73
31
-146.44
0
LINE
8
CentreLine
10
-128.33
20
-18.73
30
-146.44
11
-132.72
21
-22.82
31
-146.64
0
LINE
8
CentreLine
10
-132.72
20
-22.82
30
-146.64
11
-132.72
21
-22.82
31
-156.04
0
LINE
8
CentreLine
10
-132.72
20
-22.82
30
-156.04
11
-136.42
21
-27.73
31
-159.18
0
LINE
8
CentreLine
10
-136.42
20
-27.73
30
-159.18
11
-138.59
21
-27.58
31
-162.29
0
LINE
8
CentreLine
10
-138.59
20
-27.58
30
-162.29
11
-140.65
21
-26.66
31
-163.59
0
LINE
8
CentreLine
10
-140.65
20
-26.66
30
-163.59
11
-142.88
21
-22.46
31
-169.26
0
LINE
8
CentreLine
10
-142.88
20
-22.46
30
-169.26
11
-146.82
21
-21.62
31
-173.01
0
LINE
8
CentreLine
10
-146.82
20
-21.62
30
-173.01
11
-146.82
21
-22.77
31
-179.51
0
LINE
8
CentreLine
10
-146.82
20
-22.77
30
-179.51
11
-154.79
21
-25.05
31
-185.10
0
LINE
8
CentreLine
10
-154.79
20
-25.05
30
-185.10
11
-154.79
21
-25.05
31
-216.40
0
LINE
8
CentreLine
10
-154.79
20
-25.05
30
-216.40
11
-162.39
21
-25.72
31
-218.02
0
LINE
8
CentreLine
10
-162.39
20
-25.72
30
-218.02
11
-163.75
21
-12.74
31
-216.88
0
LINE
8
CentreLine
10
-163.75
20
-12.74
30
-216.88
11
-160.43
21
 -9.42
31
-216.88
0
LINE
8
CentreLine
10
-160.43
20
 -9.42
30
-216.88
11
-159.05
21
-11.12
31
-217.07
0
LINE
8
CentreLine
10
-159.05
20
-11.12
30
-217.07
11
-155.97
21
-19.15
31
-224.55
0
LINE
8
CentreLine
10
-155.97
20
-19.15
30
-224.55
11
-156.92
21
-22.27
31
-226.07
0
LINE
8
CentreLine
10
-156.92
20
-22.27
30
-226.07
11
-157.20
21
-25.49
31
-226.76
0
LINE
8
CentreLine
10
-157.20
20
-25.49
30
-226.76
11
-160.07
21
-26.71
31
-227.48
0
LINE
8
CentreLine
10
-160.07
20
-26.71
30
-227.48
11
-160.91
21
-28.21
31
-229.94
0
LINE
8
CentreLine
10
-160.91
20
-28.21
30
-229.94
11
-167.97
21
-26.58
31
-233.32
0
LINE
8
CentreLine
10
-167.97
20
-26.58
30
-233.32
11
-167.34
21
-28.63
31
-233.81
0
LINE
8
CentreLine
10
-167.34
20
-28.63
30
-233.81
11
-169.49
21
-29.46
31
-233.81
0
LINE
8
CentreLine
10
-169.49
20
-29.46
30
-233.81
11
-169.72
21
-31.65
31
-234.99
0
LINE
8
CentreLine
10
-169.72
20
-31.65
30
-234.99
11
-173.04
21
-37.17
31
-237.46
0
LINE
8
CentreLine
10
-173.04
20
-37.17
30
-237.46
11
-179.92
21
-39.81
31
-241.89
0
LINE
8
CentreLine
10
-179.92
20
-39.81
30
-241.89
11
-179.92
21
-39.81
31
-271.79
0
LINE
8
CentreLine
10
-179.92
20
-39.81
30
-271.79
11
-184.60
21
-37.63
31
-275.40
0
LINE
8
CentreLine
10
-184.60
20
-37.63
30
-275.40
11
-184.72
21
-44.39
31
-279.30
0
LINE
8
CentreLine
10
-184.72
20
-44.39
30
-279.30
11
-185.99
21
-49.15
31
-281.50
0
LINE
8
CentreLine
10
-185.99
20
-49.15
30
-281.50
11
-188.60
21
-50.10
31
-290.58
0
LINE
8
CentreLine
10
-188.60
20
-50.10
30
-290.58
11
-188.60
21
-50.10
31
-322.48
0
LINE
8
CentreLine
10
-188.60
20
-50.10
30
-322.48
11
-195.65
21
-55.60
31
-329.72
0
LINE
8
CentreLine
10
-195.65
20
-55.60
30
-329.72
11
-195.65
21
-55.60
31
-332.62
0
LINE
8
CentreLine
10
-195.65
20
-55.60
30
-332.62
11
-198.17
21
-56.94
31
-333.55
0
LINE
8
CentreLine
10
-198.17
20
-56.94
30
-333.55
11
-207.97
21
-60.51
31
-343.62
0
LINE
8
CentreLine
10
-207.97
20
-60.51
30
-343.62
11
-212.60
21
-61.16
31
-346.11
0
LINE
8
CentreLine
10
-212.60
20
-61.16
30
-346.11
11
-218.26
21
-62.16
31
-350.93
0
LINE
8
CentreLine
10
-218.26
20
-62.16
30
-350.93
11
-230.15
21
-66.26
31
-359.10
0
LINE
8
CentreLine
10
-230.15
20
-66.26
30
-359.10
11
-233.05
21
-69.70
31
-359.10
0
LINE
8
CentreLine
10
-233.05
20
-69.70
30
-359.10
11
-233.05
21
-73.82
31
-360.36
0
LINE
8
CentreLine
10
-233.05
20
-73.82
30
-360.36
11
-238.31
21
-76.62
31
-361.62
0
LINE
8
CentreLine
10
-238.31
20
-76.62
30
-361.62
11
-239.61
21
-83.96
31
-363.07
0
LINE
8
CentreLine
10
-239.61
20
-83.96
30
-363.07
11
-237.44
21
-89.34
31
-362.97
0
LINE
8
CentreLine
10
-237.44
20
-89.34
30
-362.97
11
-243.04
21
-92.84
31
-366.94
0
LINE
8
CentreLine
10
-243.04
20
-92.84
30
-366.94
11
-247.63
21
-95.94
31
-372.29
0
LINE
8
CentreLine
10
-247.63
20
-95.94
30
-372.29
11
-252.35
21
-98.89
31
-377.31
0
LINE
8
CentreLine
10
-252.35
20
-98.89
30
-377.31
11
-254.88
21
-109.84
31
-382.55
0
LINE
8
CentreLine
10
-254.88
20
-109.84
30
-382.55
11
-263.39
21
-112.44
31
-389.01
0
LINE
8
CentreLine
10
-263.39
20
-112.44
30
-389.01
11
-270.11
21
-124.08
31
-405.02
0
LINE
8
CentreLine
10
-270.11
20
-124.08
30
-405.02
11
-274.96
21
-131.84
31
-410.75
0
LINE
8
CentreLine
10
-274.96
20
-131.84
30
-410.75
11
-283.08
21
-137.32
31
-415.52
0
LINE
8
CentreLine
10
-283.08
20
-137.32
30
-415.52
11
-280.90
21
-144.06
31
-417.29
0
LINE
8
CentreLine
10
-280.90
20
-144.06
30
-417.29
11
-287.83
21
-149.10
31
-422.44
0
LINE
8
CentreLine
10
-287.83
20
-149.10
30
-422.44
11
-292.24
21
-150.28
31
-427.88
0
LINE
8
CentreLine
10
-292.24
20
-150.28
30
-427.88
11
-297.41
21
-147.29
31
-432.89
0
LINE
8
CentreLine
10
-297.41
20
-147.29
30
-432.89
11
-304.17
21
-145.85
31
-439.12
0
LINE
8
CentreLine
10
-304.17
20
-145.85
30
-439.12
11
-305.80
21
-141.39
31
-439.78
0
LINE
8
CentreLine
10
-305.80
20
-141.39
30
-439.78
11
-309.05
21
-143.19
31
-448.53
0
LINE
8
CentreLine
10
-232.54
20
-99.54
30
-324.51
11
-232.54
21
-99.54
31
-326.31
0
LINE
8
CentreLine
10
-232.54
20
-99.54
30
-326.31
11
-234.05
21
-100.49
31
-332.15
0
LINE
8
CentreLine
10
-234.05
20
-100.49
30
-332.15
11
-234.97
21
-101.26
31
-335.44
0
LINE
8
CentreLine
10
-234.97
20
-101.26
30
-335.44
11
-235.54
21
-103.72
31
-338.67
0
LINE
8
CentreLine
10
-235.54
20
-103.72
30
-338.67
11
-240.42
21
-104.76
31
-345.79
0
LINE
8
CentreLine
10
-240.42
20
-104.76
30
-345.79
11
-241.61
21
-105.94
31
-346.69
0
LINE
8
CentreLine
10
-241.61
20
-105.94
30
-346.69
11
-240.58
21
-108.14
31
-349.48
0
LINE
8
CentreLine
10
-240.58
20
-108.14
30
-349.48
11
-246.54
21
-113.14
31
-358.75
0
LINE
8
CentreLine
10
-246.54
20
-113.14
30
-358.75
11
-248.51
21
-112.14
31
-361.59
0
LINE
8
CentreLine
10
-248.51
20
-112.14
30
-361.59
11
-253.26
21
-117.60
31
-364.22
0
LINE
8
CentreLine
10
-253.26
20
-117.60
30
-364.22
11
-253.26
21
-119.24
31
-363.78
0
LINE
8
CentreLine
10
-253.26
20
-119.24
30
-363.78
11
-251.56
21
-122.43
31
-364.55
0
LINE
8
CentreLine
10
-251.56
20
-122.43
30
-364.55
11
-258.88
21
-127.01
31
-374.13
0
LINE
8
CentreLine
10
-258.88
20
-127.01
30
-374.13
11
-261.45
21
-130.82
31
-375.11
0
LINE
8
CentreLine
10
-261.45
20
-130.82
30
-375.11
11
-260.41
21
-133.28
31
-376.36
0
LINE
8
CentreLine
10
-260.41
20
-133.28
30
-376.36
11
-263.12
21
-133.09
31
-377.04
0
LINE
8
CentreLine
10
-263.12
20
-133.09
30
-377.04
11
-264.95
21
-136.55
31
-377.87
0
LINE
8
CentreLine
10
-264.95
20
-136.55
30
-377.87
11
-267.27
21
-141.99
31
-379.02
0
LINE
8
CentreLine
10
-267.27
20
-141.99
30
-379.02
11
-267.27
21
-144.89
31
-379.79
0
LINE
8
CentreLine
10
-267.27
20
-144.89
30
-379.79
11
-267.85
21
-146.59
31
-379.70
0
LINE
8
CentreLine
10
-267.85
20
-146.59
30
-379.70
11
-269.71
21
-147.19
31
-380.92
0
LINE
8
CentreLine
10
-269.71
20
-147.19
30
-380.92
11
-269.36
21
-151.17
31
-380.64
0
LINE
8
CentreLine
10
-269.36
20
-151.17
30
-380.64
11
-269.06
21
-153.31
31
-381.89
0
LINE
8
CentreLine
10
-269.06
20
-153.31
30
-381.89
11
-269.98
21
-154.90
31
-383.27
0
LINE
8
CentreLine
10
-269.98
20
-154.90
30
-383.27
11
-269.98
21
-154.90
31
-423.27
0
LINE
8
CentreLine
10
-269.98
20
-154.90
30
-423.27
11
-268.18
21
-150.24
31
-423.27
0
LINE
8
CentreLine
10
-268.18
20
-150.24
30
-423.27
11
-268.18
21
-150.24
31
-433.27
0
LINE
8
CentreLine
10
-268.18
20
-150.24
30
-433.27
11
-266.41
21
-145.37
31
-433.73
0
LINE
8
CentreLine
10
-266.41
20
-145.37
30
-433.73
11
-264.11
21
-139.04
31
-440.70
0
LINE
8
CentreLine
10
-264.11
20
-139.04
30
-440.70
11
-264.11
21
-139.04
31
-456.20
0
LINE
8
CentreLine
10
-264.11
20
-139.04
30
-456.20
11
-274.33
21
-144.94
31
-462.75
0
LINE
8
CentreLine
10
-274.33
20
-144.94
30
-462.75
11
-280.43
21
-145.69
31
-467.72
0
LINE
8
CentreLine
10
-280.43
20
-145.69
30
-467.72
11
-282.56
21
-143.63
31
-468.19
0
LINE
8
CentreLine
10
-282.56
20
-143.63
30
-468.19
11
-284.42
21
-143.73
31
-468.55
0
LINE
8
CentreLine
10
-284.42
20
-143.73
30
-468.55
11
-286.58
21
-142.72
31
-468.80
0
LINE
8
CentreLine
10
-286.58
20
-142.72
30
-468.80
11
-288.83
21
-145.40
31
-470.29
0
LINE
8
CentreLine
10
-288.83
20
-145.40
30
-470.29
11
-290.83
21
-156.72
31
-473.37
0
LINE
8
CentreLine
10
-290.83
20
-156.72
30
-473.37
11
-295.62
21
-169.20
31
-481.40
0
LINE
8
CentreLine
10
114.76
20
103.82
30
231.90
11
119.89
21
106.07
31
311.40
0
LINE
8
CentreLine
10
119.89
20
106.07
30
311.40
11
124.64
21
104.82
31
312.53
0
LINE
8
CentreLine
10
124.64
20
104.82
30
312.53
11
125.39
21
104.57
31
324.53
0
LINE
8
CentreLine
10
125.39
20
104.57
30
324.53
11
128.76
21
101.32
31
323.53
0
LINE
8
CentreLine
10
128.76
20
101.32
30
323.53
11
131.26
21
103.32
31
326.53
0
LINE
8
CentreLine
10
131.26
20
103.32
30
326.53
11
133.38
21
101.57
31
326.53
0
LINE
8
CentreLine
10
133.38
20
101.57
30
326.53
11
133.88
21
101.20
31
337.66
0
LINE
8
CentreLine
10
133.88
20
101.20
30
337.66
11
141.39
21
 96.20
31
336.91
0
LINE
8
CentreLine
10
141.39
20
 96.20
30
336.91
11
142.39
21
 96.45
31
355.91
0
LINE
8
CentreLine
10
142.39
20
 96.45
30
355.91
11
146.26
21
 93.45
31
356.28
0
LINE
8
CentreLine
10
146.26
20
 93.45
30
356.28
11
148.26
21
 90.70
31
357.03
0
LINE
8
CentreLine
10
148.26
20
 90.70
30
357.03
11
151.26
21
 91.20
31
357.28
0
LINE
8
CentreLine
10
151.26
20
 91.20
30
357.28
11
152.13
21
 91.45
31
370.28
0
LINE
8
CentreLine
10
152.13
20
 91.45
30
370.28
11
152.01
21
 94.57
31
398.78
0
LINE
8
CentreLine
10
152.01
20
 94.57
30
398.78
11
159.51
21
 99.70
31
410.28
0
LINE
8
CentreLine
10
159.51
20
 99.70
30
410.28
11
159.38
21
102.70
31
413.03
0
LINE
8
CentreLine
10
159.38
20
102.70
30
413.03
11
157.51
21
106.95
31
414.15
0
LINE
8
CentreLine
10
157.51
20
106.95
30
414.15
11
159.01
21
108.32
31
414.65
0
LINE
8
CentreLine
10
159.01
20
108.32
30
414.65
11
158.01
21
114.57
31
415.90
0
LINE
8
CentreLine
10
158.01
20
114.57
30
415.90
11
159.26
21
117.70
31
418.78
0
LINE
8
CentreLine
10
159.26
20
117.70
30
418.78
11
163.63
21
119.57
31
423.03
0
LINE
8
CentreLine
10
163.63
20
119.57
30
423.03
11
167.76
21
116.57
31
420.28
0
LINE
8
CentreLine
10
167.76
20
116.57
30
420.28
11
167.76
21
116.57
31
424.78
0
LINE
8
CentreLine
10
167.76
20
116.57
30
424.78
11
169.76
21
115.57
31
425.03
0
LINE
8
CentreLine
10
169.76
20
115.57
30
425.03
11
174.01
21
115.82
31
425.90
0
LINE
8
CentreLine
10
174.01
20
115.82
30
425.90
11
175.63
21
122.32
31
429.65
0
LINE
8
CentreLine
10
175.63
20
122.32
30
429.65
11
177.38
21
129.07
31
433.65
0
LINE
8
CentreLine
10
177.38
20
129.07
30
433.65
11
178.76
21
131.32
31
432.40
0
LINE
8
CentreLine
10
178.76
20
131.32
30
432.40
11
183.51
21
132.82
31
434.90
0
LINE
8
CentreLine
10
183.51
20
132.82
30
434.90
11
185.63
21
129.32
31
437.78
0
LINE
8
CentreLine
10
185.63
20
129.32
30
437.78
11
186.13
21
126.32
31
445.03
0
LINE
8
CentreLine
10
186.13
20
126.32
30
445.03
11
187.26
21
126.57
31
445.28
0
LINE
8
CentreLine
10
187.26
20
126.57
30
445.28
11
188.76
21
130.20
31
448.03
0
LINE
8
CentreLine
10
188.76
20
130.20
30
448.03
11
189.76
21
131.70
31
446.78
0
LINE
8
CentreLine
10
189.76
20
131.70
30
446.78
11
194.63
21
130.45
31
449.78
0
LINE
8
CentreLine
10
194.63
20
130.45
30
449.78
11
205.38
21
140.70
31
458.78
0
LINE
8
CentreLine
10
205.38
20
140.70
30
458.78
11
202.38
21
152.32
31
463.65
0
LINE
8
CentreLine
10
202.38
20
152.32
30
463.65
11
204.38
21
154.95
31
466.78
0
LINE
8
CentreLine
10
204.38
20
154.95
30
466.78
11
204.13
21
158.82
31
472.28
0
LINE
8
CentreLine
10
205.38
20
140.70
30
458.78
11
208.13
21
133.95
31
461.03
0
LINE
8
CentreLine
10
208.13
20
133.95
30
461.03
11
221.13
21
139.20
31
481.40
0
LINE
8
CentreLine
10
131.26
20
103.32
30
326.53
11
129.14
21
107.82
31
335.28
0
LINE
8
CentreLine
10
129.14
20
107.82
30
335.28
11
128.39
21
111.07
31
335.16
0
LINE
8
CentreLine
10
128.39
20
111.07
30
335.16
11
125.64
21
112.70
31
328.78
0
LINE
8
CentreLine
10
152.13
20
 91.45
30
370.28
11
148.66
21
 92.94
31
369.78
0
LINE
8
CentreLine
10
148.66
20
 92.94
30
369.78
11
148.42
21
 93.22
31
366.87
0
LINE
8
CentreLine
10
148.42
20
 93.22
30
366.87
11
148.04
21
 95.22
31
366.87
0
LINE
8
CentreLine
10
148.04
20
 95.22
30
366.87
11
148.26
21
 96.07
31
361.65
0
LINE
8
CentreLine
10
148.26
20
 96.07
30
361.65
11
148.01
21
 90.82
31
351.14
0
LINE
8
CentreLine
10
148.01
20
 90.82
30
351.14
11
140.52
21
 92.74
31
343.47
0
LINE
8
CentreLine
10
114.76
20
103.82
30
231.90
11
118.01
21
102.45
31
230.40
0
LINE
8
CentreLine
10
118.01
20
102.45
30
230.40
11
120.63
21
109.82
31
216.15
0
LINE
8
CentreLine
10
120.63
20
109.82
30
216.15
11
115.38
21
112.70
31
213.28
0
LINE
8
CentreLine
10
115.38
20
112.70
30
213.28
11
113.13
21
113.95
31
214.77
0
LINE
8
CentreLine
10
113.13
20
113.95
30
214.77
11
113.38
21
113.20
31
217.52
0
LINE
8
CentreLine
10
113.38
20
113.20
30
217.52
11
111.13
21
111.20
31
216.28
0
LINE
8
CentreLine
10
111.13
20
111.20
30
216.28
11
111.13
21
111.20
31
208.03
0
LINE
8
CentreLine
10
111.13
20
111.20
30
208.03
11
114.13
21
110.70
31
208.03
0
LINE
8
CentreLine
10
114.13
20
110.70
30
208.03
11
113.63
21
109.95
31
205.03
0
LINE
8
CentreLine
10
113.63
20
109.95
30
205.03
11
113.63
21
109.20
31
195.03
0
LINE
8
CentreLine
10
113.63
20
109.20
30
195.03
11
114.63
21
102.45
31
191.28
0
LINE
8
CentreLine
10
114.63
20
102.45
30
191.28
11
116.38
21
100.95
31
191.28
0
LINE
8
CentreLine
10
116.38
20
100.95
30
191.28
11
116.13
21
 99.70
31
191.28
0
LINE
8
CentreLine
10
116.13
20
 99.70
30
191.28
11
117.38
21
 97.45
31
189.53
0
LINE
8
CentreLine
10
117.38
20
 97.45
30
189.53
11
121.13
21
 99.95
31
188.53
0
LINE
8
CentreLine
10
121.13
20
 99.95
30
188.53
11
123.88
21
 96.45
31
187.52
0
LINE
8
CentreLine
10
123.88
20
 96.45
30
187.52
11
121.13
21
 94.20
31
185.52
0
LINE
8
CentreLine
10
121.13
20
 94.20
30
185.52
11
118.13
21
 91.45
31
175.02
0
LINE
8
CentreLine
10
118.13
20
 91.45
30
175.02
11
110.63
21
 93.20
31
173.02
0
LINE
8
CentreLine
10
110.63
20
 93.20
30
173.02
11
107.38
21
 89.70
31
172.77
0
LINE
8
CentreLine
10
107.38
20
 89.70
30
172.77
11
108.13
21
 86.95
31
171.27
0
LINE
8
CentreLine
10
108.13
20
 86.95
30
171.27
11
109.13
21
 84.95
31
157.77
0
LINE
8
CentreLine
10
109.13
20
 84.95
30
157.77
11
110.63
21
 80.70
31
148.27
0
LINE
8
CentreLine
10
110.63
20
 80.70
30
148.27
11
112.38
21
 78.45
31
149.52
0
LINE
8
CentreLine
10
112.38
20
 78.45
30
149.52
11
115.63
21
 74.70
31
146.27
0
LINE
8
CentreLine
10
115.63
20
 74.70
30
146.27
11
117.63
21
 72.70
31
143.52
0
LINE
8
CentreLine
10
117.63
20
 72.70
30
143.52
11
117.63
21
 72.70
31
135.77
0
LINE
8
CentreLine
10
102.24
20
 23.12
30
295.90
11
105.14
21
 20.60
31
296.79
0
LINE
8
CentreLine
10
105.14
20
 20.60
30
296.79
11
100.23
21
 15.14
31
271.20
0
LINE
8
CentreLine
10
100.23
20
 15.14
30
271.20
11
 96.98
21
 18.75
31
269.24
0
LINE
8
CentreLine
10
 96.98
20
 18.75
30
269.24
11
 96.98
21
 18.75
31
243.42
0
LINE
8
CentreLine
10
 96.98
20
 18.75
30
243.42
11
 89.70
21
 20.57
31
244.20
0
LINE
8
CentreLine
10
 89.70
20
 20.57
30
244.20
11
 85.50
21
 20.71
31
238.20
0
LINE
8
CentreLine
10
 85.50
20
 20.71
30
238.20
11
 85.50
21
 20.71
31
227.33
0
LINE
8
CentreLine
10
 85.50
20
 20.71
30
227.33
11
 85.50
21
 20.71
31
196.70
0
LINE
8
CentreLine
10
 85.50
20
 20.71
30
196.70
11
 85.50
21
 20.71
31
173.55
0
LINE
8
CentreLine
10
 85.50
20
 20.71
30
173.55
11
 85.50
21
 20.71
31
151.77
0
LINE
8
CentreLine
10
 85.50
20
 20.71
30
151.77
11
 85.45
21
 18.02
31
151.10
0
LINE
8
CentreLine
10
 85.45
20
 18.02
30
151.10
11
 88.17
21
 17.29
31
149.90
0
LINE
8
CentreLine
10
 88.17
20
 17.29
30
149.90
11
 89.37
21
 17.10
31
148.88
0
LINE
8
CentreLine
10
 89.37
20
 17.10
30
148.88
11
 92.44
21
 15.98
31
147.88
0
LINE
8
CentreLine
10
 92.44
20
 15.98
30
147.88
11
 94.49
21
 14.33
31
147.32
0
LINE
8
CentreLine
10
 94.49
20
 14.33
30
147.32
11
 93.94
21
 11.77
31
146.47
0
LINE
8
CentreLine
10
 93.94
20
 11.77
30
146.47
11
 93.98
21
  9.64
31
145.62
0
LINE
8
CentreLine
10
 93.98
20
  9.64
30
145.62
11
 93.33
21
  6.84
31
145.00
0
LINE
8
CentreLine
10
 93.33
20
  6.84
30
145.00
11
 91.66
21
  6.46
31
147.13
0
LINE
8
CentreLine
10
 91.66
20
  6.46
30
147.13
11
 87.13
21
  8.47
31
138.87
0
LINE
8
CentreLine
10
 87.13
20
  8.47
30
138.87
11
 84.65
21
  5.72
31
135.77
0
LINE
8
CentreLine
10
 84.65
20
  5.72
30
135.77
11
 81.60
21
  0.21
31
134.99
0
LINE
8
CentreLine
10
 81.60
20
  0.21
30
134.99
11
 73.00
21
  0.81
31
132.68
0
LINE
8
CentreLine
10
 73.00
20
  0.81
30
132.68
11
 73.00
21
  0.81
31
107.94
0
LINE
8
CentreLine
10
 73.00
20
  0.81
30
107.94
11
 76.16
21
  7.90
31
113.79
0
LINE
8
CentreLine
10
 76.16
20
  7.90
30
113.79
11
 75.05
21
  5.63
31
110.18
0
LINE
8
CentreLine
10
 75.05
20
  5.63
30
110.18
11
 77.08
21
 10.66
31
114.73
0
LINE
8
CentreLine
10
 77.08
20
 10.66
30
114.73
11
 80.60
21
 13.40
31
116.54
0
LINE
8
CentreLine
10
 80.60
20
 13.40
30
116.54
11
 81.31
21
 18.46
31
111.25
0
LINE
8
CentreLine
10
 81.31
20
 18.46
30
111.25
11
 79.52
21
 21.55
31
108.56
0
LINE
8
CentreLine
10
 75.05
20
  5.63
30
110.18
11
 76.07
21
  3.87
31
109.36
0
LINE
8
CentreLine
10
 76.07
20
  3.87
30
109.36
11
 72.90
21
 -1.61
31
100.32
0
LINE
8
CentreLine
10
 72.90
20
 -1.61
30
100.32
11
 72.90
21
 -1.61
31
 64.62
0
LINE
8
CentreLine
10
 72.90
20
 -1.61
30
 64.62
11
 70.94
21
  2.06
31
 62.21
0
LINE
8
CentreLine
10
 70.94
20
  2.06
30
 62.21
11
 70.94
21
  2.06
31
 60.60
0
LINE
8
CentreLine
10
 70.94
20
  2.06
30
 60.60
11
 70.33
21
  4.06
31
 55.43
0
LINE
8
CentreLine
10
 70.33
20
  4.06
30
 55.43
11
 70.33
21
  4.06
31
 53.33
0
LINE
8
CentreLine
10
 70.33
20
  4.06
30
 53.33
11
 71.58
21
  4.06
31
 53.33
0
LINE
8
CentreLine
10
 71.58
20
  4.06
30
 53.33
11
 71.58
21
  4.06
31
 14.53
0
LINE
8
CentreLine
10
 71.58
20
  4.06
30
 14.53
11
 76.25
21
-10.31
31
  8.12
0
LINE
8
CentreLine
10
 76.25
20
-10.31
30
  8.12
11
 76.25
21
-10.31
31
 -6.65
0
LINE
8
CentreLine
10
 76.25
20
-10.31
30
 -6.65
11
 67.96
21
-17.52
31
 -6.65
0
LINE
8
CentreLine
10
 67.96
20
-17.52
30
 -6.65
11
 67.17
21
-16.15
31
 -8.61
0
LINE
8
CentreLine
10
 67.17
20
-16.15
30
 -8.61
11
 67.17
21
-16.15
31
-18.29
0
LINE
8
CentreLine
10
 67.17
20
-16.15
30
-18.29
11
 68.00
21
-22.08
31
-16.23
0
LINE
8
CentreLine
10
 68.00
20
-22.08
30
-16.23
11
 73.50
21
-20.91
31
-22.94
0
LINE
8
CentreLine
10
 76.25
20
-10.31
30
 -6.65
11
 76.25
21
-10.31
31
-13.27
0
LINE
8
CentreLine
10
-183.90
20
-102.87
30
-263.55
11
-185.82
21
-105.72
31
-275.51
0
LINE
8
CentreLine
10
-185.82
20
-105.72
30
-275.51
11
-186.59
21
-108.81
31
-276.43
0
LINE
8
CentreLine
10
-186.59
20
-108.81
30
-276.43
11
-186.59
21
-108.81
31
-289.25
0
LINE
8
CentreLine
10
-186.59
20
-108.81
30
-289.25
11
-190.17
21
-109.06
31
-289.31
0
LINE
8
CentreLine
10
-190.17
20
-109.06
30
-289.31
11
-184.34
21
-102.80
31
-287.65
0
LINE
8
CentreLine
10
-184.34
20
-102.80
30
-287.65
11
-183.44
21
-111.37
31
-287.35
0
LINE
8
CentreLine
10
-183.44
20
-111.37
30
-287.35
11
-170.58
21
-116.31
31
-288.31
0
LINE
8
CentreLine
10
-170.58
20
-116.31
30
-288.31
11
-170.42
21
-107.16
31
-287.99
0
LINE
8
CentreLine
10
-170.42
20
-107.16
30
-287.99
11
-168.83
21
-100.28
31
-289.36
0
LINE
8
CentreLine
10
-168.83
20
-100.28
30
-289.36
11
-171.83
21
-91.56
31
-285.64
0
LINE
8
CentreLine
10
-171.83
20
-91.56
30
-285.64
11
-175.41
21
-90.40
31
-286.04
0
LINE
8
CentreLine
10
-175.41
20
-90.40
30
-286.04
11
-181.55
21
-89.97
31
-286.47
0
LINE
8
CentreLine
10
-181.55
20
-89.97
30
-286.47
11
-181.55
21
-89.97
31
-286.27
0
LINE
8
CentreLine
10
-181.55
20
-89.97
30
-286.27
11
-180.77
21
-94.90
31
-285.74
0
LINE
8
CentreLine
10
-180.77
20
-94.90
30
-285.74
11
-182.59
21
-94.74
31
-285.68
0
LINE
8
CentreLine
10
-182.59
20
-94.74
30
-285.68
11
-180.61
21
-86.16
31
-280.39
0
LINE
8
CentreLine
10
-180.61
20
-86.16
30
-280.39
11
-185.30
21
-80.77
31
-278.20
0
LINE
8
CentreLine
10
-185.30
20
-80.77
30
-278.20
11
-186.28
21
-75.72
31
-276.53
0
LINE
8
CentreLine
10
-186.28
20
-75.72
30
-276.53
11
-188.62
21
-73.12
31
-276.35
0
LINE
8
CentreLine
10
-188.62
20
-73.12
30
-276.35
11
-188.10
21
-70.19
31
-274.49
0
LINE
8
CentreLine
10
-188.10
20
-70.19
30
-274.49
11
-189.64
21
-65.98
31
-274.57
0
LINE
8
CentreLine
10
-189.64
20
-65.98
30
-274.57
11
-188.30
21
-59.68
31
-272.09
0
LINE
8
CentreLine
10
-188.30
20
-59.68
30
-272.09
11
-185.36
21
-52.41
31
-269.40
0
LINE
8
CentreLine
10
-185.36
20
-52.41
30
-269.40
11
-181.14
21
-44.79
31
-271.25
0
LINE
8
CentreLine
10
-190.17
20
-109.06
30
-289.31
11
-191.94
21
-114.84
31
-287.22
0
LINE
8
CentreLine
10
-191.94
20
-114.84
30
-287.22
11
-195.61
21
-123.50
31
-289.92
0
LINE
8
CentreLine
10
-195.61
20
-123.50
30
-289.92
11
-193.04
21
-139.72
31
-290.78
0
LINE
8
CentreLine
10
-193.04
20
-139.72
30
-290.78
11
-196.10
21
-146.28
31
-296.44
0
LINE
8
CentreLine
10
-196.10
20
-146.28
30
-296.44
11
-197.65
21
-149.76
31
-306.33
0
LINE
8
CentreLine
10
-197.65
20
-149.76
30
-306.33
11
-200.03
21
-150.26
31
-320.16
0
LINE
8
CentreLine
10
-200.03
20
-150.26
30
-320.16
11
-201.52
21
-159.64
31
-335.35
0
LINE
8
CentreLine
10
-201.52
20
-159.64
30
-335.35
11
-204.02
21
-175.45
31
-335.91
0
LINE
8
CentreLine
10
-180.77
20
-94.90
30
-285.74
11
-180.36
21
-87.04
31
-287.41
0
LINE
8
CentreLine
10
-180.36
20
-87.04
30
-287.41
11
-181.63
21
-85.35
31
-294.78
0
LINE
8
CentreLine
10
-181.63
20
-85.35
30
-294.78
11
-184.31
21
-89.48
31
-296.77
0
LINE
8
CentreLine
10
-184.31
20
-89.48
30
-296.77
11
-186.80
21
-91.89
31
-308.85
0
LINE
8
CentreLine
10
-186.80
20
-91.89
30
-308.85
11
-192.45
21
-94.05
31
-311.29
0
LINE
8
CentreLine
10
-192.45
20
-94.05
30
-311.29
11
-192.74
21
-98.16
31
-312.71
0
LINE
8
CentreLine
10
-192.74
20
-98.16
30
-312.71
11
-194.34
21
-99.82
31
-313.60
0
LINE
8
CentreLine
10
-194.34
20
-99.82
30
-313.60
11
-192.12
21
-105.05
31
-314.40
0
LINE
8
CentreLine
10
-192.12
20
-105.05
30
-314.40
11
-188.62
21
-106.92
31
-315.92
0
LINE
8
CentreLine
10
-188.62
20
-106.92
30
-315.92
11
-189.19
21
-109.40
31
-316.01
0
LINE
8
CentreLine
10
-189.19
20
-109.40
30
-316.01
11
-185.06
21
-109.83
31
-317.77
0
LINE
8
CentreLine
10
-185.06
20
-109.83
30
-317.77
11
-183.42
21
-111.12
31
-317.40
0
LINE
8
CentreLine
10
-183.42
20
-111.12
30
-317.40
11
-180.74
21
-109.03
31
-318.99
0
LINE
8
CentreLine
10
-180.74
20
-109.03
30
-318.99
11
-182.46
21
-109.21
31
-320.98
0
LINE
8
CentreLine
10
-182.46
20
-109.21
30
-320.98
11
-180.58
21
-110.17
31
-320.98
0
LINE
8
CentreLine
10
-180.58
20
-110.17
30
-320.98
11
-180.58
21
-110.17
31
-330.63
0
LINE
8
CentreLine
10
-180.58
20
-110.17
30
-330.63
11
-183.13
21
-112.54
31
-330.26
0
LINE
8
CentreLine
10
-183.13
20
-112.54
30
-330.26
11
-185.59
21
-118.33
31
-331.83
0
LINE
8
CentreLine
10
-185.59
20
-118.33
30
-331.83
11
-183.55
21
-124.60
31
-327.71
0
LINE
8
CentreLine
10
-183.55
20
-124.60
30
-327.71
11
-186.99
21
-133.13
31
-329.17
0
LINE
8
CentreLine
10
-186.99
20
-133.13
30
-329.17
11
-188.63
21
-138.85
31
-328.22
0
LINE
8
CentreLine
10
-188.63
20
-138.85
30
-328.22
11
-188.84
21
-144.77
31
-328.12
0
LINE
8
CentreLine
10
-188.84
20
-144.77
30
-328.12
11
-189.77
21
-147.63
31
-333.79
0
LINE
8
CentreLine
10
-189.77
20
-147.63
30
-333.79
11
-192.96
21
-152.54
31
-336.27
0
LINE
8
CentreLine
10
-192.96
20
-152.54
30
-336.27
11
-192.52
21
-158.87
31
-336.94
0
LINE
8
CentreLine
10
-192.52
20
-158.87
30
-336.94
11
-192.52
21
-158.87
31
-342.63
0
LINE
8
CentreLine
10
-192.52
20
-158.87
30
-342.63
11
-193.67
21
-156.61
31
-345.56
0
LINE
8
CentreLine
10
-193.67
20
-156.61
30
-345.56
11
-193.67
21
-156.61
31
-374.86
0
LINE
8
CentreLine
10
-193.67
20
-156.61
30
-374.86
11
-193.34
21
-159.77
31
-374.18
0
LINE
8
CentreLine
10
-193.34
20
-159.77
30
-374.18
11
-192.82
21
-162.74
31
-374.34
0
LINE
8
CentreLine
10
-192.82
20
-162.74
30
-374.34
11
-193.50
21
-163.84
31
-377.25
0
LINE
8
CentreLine
10
-193.50
20
-163.84
30
-377.25
11
-191.69
21
-166.52
31
-377.25
0
LINE
8
CentreLine
10
-191.69
20
-166.52
30
-377.25
11
-193.00
21
-169.09
31
-379.85
0
LINE
8
CentreLine
10
-193.00
20
-169.09
30
-379.85
11
-192.36
21
-173.15
31
-382.84
0
LINE
8
CentreLine
10
-192.36
20
-173.15
30
-382.84
11
-192.94
21
-175.91
31
-382.98
0
LINE
8
CentreLine
10
-192.94
20
-175.91
30
-382.98
11
-192.94
21
-175.91
31
-387.75
0
LINE
8
CentreLine
10
-192.94
20
-175.91
30
-387.75
11
-192.88
21
-177.84
31
-386.13
0
LINE
8
CentreLine
10
-192.88
20
-177.84
30
-386.13
11
-190.97
21
-179.12
31
-386.46
0
LINE
8
CentreLine
10
-190.97
20
-179.12
30
-386.46
11
-189.21
21
-177.70
31
-385.30
0
LINE
8
CentreLine
10
-189.21
20
-177.70
30
-385.30
11
-190.13
21
-176.17
31
-385.27
0
LINE
8
CentreLine
10
-190.13
20
-176.17
30
-385.27
11
-190.25
21
-174.38
31
-386.73
0
LINE
8
CentreLine
10
-190.25
20
-174.38
30
-386.73
11
-186.61
21
-170.47
31
-388.16
0
LINE
8
CentreLine
10
-186.61
20
-170.47
30
-388.16
11
-183.95
21
-172.41
31
-386.48
0
LINE
8
CentreLine
10
-183.95
20
-172.41
30
-386.48
11
-179.49
21
-170.87
31
-383.42
0
LINE
8
CentreLine
10
-179.49
20
-170.87
30
-383.42
11
-179.12
21
-167.42
31
-383.78
0
LINE
8
CentreLine
10
-179.12
20
-167.42
30
-383.78
11
-177.99
21
-162.85
31
-384.87
0
LINE
8
CentreLine
10
-177.99
20
-162.85
30
-384.87
11
-179.10
21
-158.39
31
-384.63
0
LINE
8
CentreLine
10
-179.10
20
-158.39
30
-384.63
11
-177.36
21
-159.57
31
-380.32
0
LINE
8
CentreLine
10
-177.36
20
-159.57
30
-380.32
11
-174.00
21
-151.66
31
-379.72
0
LINE
8
CentreLine
10
-174.00
20
-151.66
30
-379.72
11
-170.88
21
-156.29
31
-377.58
0
LINE
8
CentreLine
10
-170.88
20
-156.29
30
-377.58
11
-166.00
21
-155.78
31
-374.75
0
LINE
8
CentreLine
10
-166.00
20
-155.78
30
-374.75
11
-161.36
21
-154.87
31
-372.64
0
LINE
8
CentreLine
10
-161.36
20
-154.87
30
-372.64
11
-158.59
21
-153.40
31
-372.37
0
LINE
8
CentreLine
10
-158.59
20
-153.40
30
-372.37
11
-150.18
21
-152.52
31
-367.87
0
LINE
8
CentreLine
10
-150.18
20
-152.52
30
-367.87
11
-147.06
21
-146.90
31
-368.77
0
LINE
8
CentreLine
10
-147.06
20
-146.90
30
-368.77
11
-142.45
21
-152.39
31
-366.30
0
LINE
8
CentreLine
10
-142.45
20
-152.39
30
-366.30
11
-142.96
21
-157.32
31
-365.34
0
LINE
8
CentreLine
10
-142.96
20
-157.32
30
-365.34
11
-135.31
21
-159.96
31
-361.90
0
LINE
8
CentreLine
10
-135.31
20
-159.96
30
-361.90
11
-130.73
21
-165.62
31
-358.81
0
LINE
8
CentreLine
10
-130.73
20
-165.62
30
-358.81
11
-125.39
21
-165.15
31
-357.67
0
LINE
8
CentreLine
10
-125.39
20
-165.15
30
-357.67
11
-119.70
21
-172.44
31
-355.19
0
LINE
8
CentreLine
10
-192.88
20
-177.84
30
-386.13
11
-192.99
21
-184.34
31
-387.17
0
LINE
8
CentreLine
10
-192.99
20
-184.34
30
-387.17
11
-192.99
21
-184.34
31
-394.99
0
LINE
8
CentreLine
10
-192.99
20
-184.34
30
-394.99
11
-193.76
21
-189.84
31
-393.18
0
LINE
8
CentreLine
10
-193.76
20
-189.84
30
-393.18
11
-197.93
21
-202.68
31
-393.42
0
LINE
8
CentreLine
10
-197.93
20
-202.68
30
-393.42
11
-202.59
21
-211.43
31
-397.83
0
LINE
8
CentreLine
10
-202.59
20
-211.43
30
-397.83
11
-201.72
21
-211.96
31
-417.24
0
LINE
8
CentreLine
10
-201.72
20
-211.96
30
-417.24
11
-205.61
21
-199.21
31
-426.57
0
LINE
8
CentreLine
10
-205.61
20
-199.21
30
-426.57
11
-213.50
21
-201.18
31
-432.93
0
LINE
8
CentreLine
10
-213.50
20
-201.18
30
-432.93
11
-214.75
21
-186.87
31
-436.51
0
LINE
8
CentreLine
10
-214.75
20
-186.87
30
-436.51
11
-217.63
21
-185.15
31
-437.47
0
LINE
8
CentreLine
10
-217.63
20
-185.15
30
-437.47
11
-218.28
21
-166.58
31
-438.44
0
LINE
8
CentreLine
10
-218.28
20
-166.58
30
-438.44
11
-218.88
21
-162.81
31
-443.70
0
LINE
8
CentreLine
10
-218.88
20
-162.81
30
-443.70
11
-222.60
21
-167.25
31
-449.50
0
LINE
8
CentreLine
10
-222.60
20
-167.25
30
-449.50
11
-221.79
21
-161.44
31
-451.18
0
LINE
8
CentreLine
10
-221.79
20
-161.44
30
-451.18
11
-225.78
21
-163.14
31
-451.95
0
LINE
8
CentreLine
10
-225.78
20
-163.14
30
-451.95
11
-228.63
21
-161.81
31
-455.57
0
LINE
8
CentreLine
10
-228.63
20
-161.81
30
-455.57
11
-235.78
21
-166.28
31
-466.36
0
LINE
8
CentreLine
10
-235.78
20
-166.28
30
-466.36
11
-240.88
21
-167.64
31
-469.41
0
LINE
8
CentreLine
10
-240.88
20
-167.64
30
-469.41
11
-241.65
21
-163.30
31
-472.17
0
LINE
8
CentreLine
10
-241.65
20
-163.30
30
-472.17
11
-243.34
21
-160.98
31
-474.18
0
LINE
8
CentreLine
10
-243.34
20
-160.98
30
-474.18
11
-244.10
21
-159.90
31
-475.93
0
LINE
8
CentreLine
10
-244.10
20
-159.90
30
-475.93
11
-247.51
21
-163.43
31
-479.38
000
ENDSEC
000
EOF
