0
SECTION
2
HEADER
9
$EXTMIN
10
-329.770000
20
-481.400000
30
-211.960000
9
$EXTMAX
10
329.770000
20
481.400000
30
211.960000
9
$PDMODE
70
3
9
$PDSIZE
40
  0.80
0
ENDSEC
0
SECTION
2
TABLES
0
TABLE
2
LTYPE
70
10
0
LTYPE
2
CONTINUOUS
70
64
3
Continuous
72
65
73
0
40
0.0
0
LTYPE
2
DASHED
70
64
3
Dashed
72
65
73
2
40
2.5
49
1.25
49
-1.25
0
ENDTAB
0
TABLE
2
LAYER
70
10
0
LAYER
2
CentreLine
70
64
62
5
6
CONTINUOUS
0
LAYER
2
Stations
70
64
62
7
6
CONTINUOUS
0
LAYER
2
Labels
70
64
62
7
6
CONTINUOUS
0
LAYER
2
Surface
70
64
62
5
6
DASHED
0
LAYER
2
SurfaceStations
70
64
62
7
6
CONTINUOUS
0
LAYER
2
SurfaceLabels
70
64
62
7
6
CONTINUOUS
0
ENDTAB
0
ENDSEC
0
SECTION
2
ENTITIES
0
LINE
8
CentreLine
10
265.69
20
351.04
30
-18.66
11
262.56
21
348.01
31
-18.51
0
LINE
8
CentreLine
10
262.56
20
348.01
30
-18.51
11
259.41
21
341.96
31
-12.37
0
LINE
8
CentreLine
10
259.41
20
341.96
30
-12.37
11
262.43
21
338.74
31
-20.71
0
LINE
8
CentreLine
10
262.43
20
338.74
30
-20.71
11
262.47
21
327.96
31
-20.63
0
LINE
8
CentreLine
10
262.47
20
327.96
30
-20.63
11
270.92
21
330.88
31
-25.84
0
LINE
8
CentreLine
10
265.69
20
351.04
30
-18.66
11
280.28
21
351.17
31
 -4.45
0
LINE
8
CentreLine
10
280.28
20
351.17
30
 -4.45
11
275.86
21
354.59
31
-21.54
0
LINE
8
CentreLine
10
275.86
20
354.59
30
-21.54
11
274.79
21
354.58
31
-24.44
0
LINE
8
CentreLine
10
274.79
20
354.58
30
-24.44
11
274.64
21
330.36
31
-24.74
0
LINE
8
CentreLine
10
274.64
20
330.36
30
-24.74
11
270.92
21
330.88
31
-25.84
0
LINE
8
CentreLine
10
273.14
20
167.30
30
 66.68
11
271.04
21
167.30
31
 65.88
0
LINE
8
CentreLine
10
271.04
20
167.30
30
 65.88
11
271.04
21
175.75
31
 65.88
0
LINE
8
CentreLine
10
271.04
20
175.75
30
 65.88
11
271.04
21
193.37
31
 65.88
0
LINE
8
CentreLine
10
271.04
20
193.37
30
 65.88
11
271.66
21
195.11
31
 63.97
0
LINE
8
CentreLine
10
271.66
20
195.11
30
 63.97
11
273.44
21
194.75
31
 59.09
0
LINE
8
CentreLine
10
273.44
20
194.75
30
 59.09
11
268.54
21
193.77
31
 49.06
0
LINE
8
CentreLine
10
268.54
20
193.77
30
 49.06
11
268.54
21
206.84
31
 49.06
0
LINE
8
CentreLine
10
268.54
20
206.84
30
 49.06
11
266.64
21
209.11
31
 44.34
0
LINE
8
CentreLine
10
266.64
20
209.11
30
 44.34
11
266.27
21
209.66
31
 40.90
0
LINE
8
CentreLine
10
266.27
20
209.66
30
 40.90
11
267.24
21
212.87
31
 27.01
0
LINE
8
CentreLine
10
267.24
20
212.87
30
 27.01
11
268.28
21
213.15
31
 26.23
0
LINE
8
CentreLine
10
268.28
20
213.15
30
 26.23
11
267.01
21
216.10
31
 23.08
0
LINE
8
CentreLine
10
267.01
20
216.10
30
 23.08
11
271.96
21
213.70
31
 14.84
0
LINE
8
CentreLine
10
271.96
20
213.70
30
 14.84
11
271.96
21
268.60
31
 14.84
0
LINE
8
CentreLine
10
271.96
20
268.60
30
 14.84
11
273.85
21
269.39
31
 12.59
0
LINE
8
CentreLine
10
273.85
20
269.39
30
 12.59
11
272.39
21
269.05
31
 12.66
0
LINE
8
CentreLine
10
272.39
20
269.05
30
 12.66
11
272.53
21
272.31
31
  9.62
0
LINE
8
CentreLine
10
272.53
20
272.31
30
  9.62
11
271.71
21
274.55
31
  1.86
0
LINE
8
CentreLine
10
271.71
20
274.55
30
  1.86
11
273.94
21
286.66
31
  4.52
0
LINE
8
CentreLine
10
273.94
20
286.66
30
  4.52
11
274.79
21
299.72
31
  1.12
0
LINE
8
CentreLine
10
274.79
20
299.72
30
  1.12
11
277.52
21
299.89
31
 -4.48
0
LINE
8
CentreLine
10
277.52
20
299.89
30
 -4.48
11
277.52
21
320.38
31
 -4.48
0
LINE
8
CentreLine
10
277.52
20
320.38
30
 -4.48
11
275.31
21
322.50
31
-13.03
0
LINE
8
CentreLine
10
275.31
20
322.50
30
-13.03
11
274.97
21
327.61
31
-16.94
0
LINE
8
CentreLine
10
274.97
20
327.61
30
-16.94
11
273.07
21
329.70
31
-21.63
0
LINE
8
CentreLine
10
273.07
20
329.70
30
-21.63
11
270.92
21
330.88
31
-25.84
0
LINE
8
CentreLine
10
296.05
20
129.91
30
 75.48
11
284.78
21
136.16
31
 81.69
0
LINE
8
CentreLine
10
284.78
20
136.16
30
 81.69
11
283.34
21
144.77
31
 95.19
0
LINE
8
CentreLine
10
283.34
20
144.77
30
 95.19
11
281.28
21
157.55
31
111.74
0
LINE
8
CentreLine
10
281.28
20
157.55
30
111.74
11
289.27
21
159.59
31
118.71
0
LINE
8
CentreLine
10
289.27
20
159.59
30
118.71
11
316.95
21
150.86
31
128.84
0
LINE
8
CentreLine
10
316.95
20
150.86
30
128.84
11
329.77
21
141.07
31
114.95
0
LINE
8
CentreLine
10
329.77
20
141.07
30
114.95
11
320.15
21
132.10
31
 89.60
0
LINE
8
CentreLine
10
320.15
20
132.10
30
 89.60
11
320.17
21
130.35
31
 76.09
0
LINE
8
CentreLine
10
320.17
20
130.35
30
 76.09
11
319.38
21
129.56
31
 70.98
0
LINE
8
CentreLine
10
319.38
20
129.56
30
 70.98
11
308.95
21
117.99
31
 49.34
0
LINE
8
CentreLine
10
308.95
20
117.99
30
 49.34
11
308.39
21
111.21
31
 41.07
0
LINE
8
CentreLine
10
308.39
20
111.21
30
 41.07
11
294.72
21
115.70
31
 52.02
0
LINE
8
CentreLine
10
294.72
20
115.70
30
 52.02
11
291.77
21
123.82
31
 66.91
0
LINE
8
CentreLine
10
291.77
20
123.82
30
 66.91
11
296.05
21
129.91
31
 75.48
0
LINE
8
CentreLine
10
296.05
20
129.91
30
 75.48
11
277.34
21
147.95
31
 68.30
0
LINE
8
CentreLine
10
277.34
20
147.95
30
 68.30
11
273.14
21
147.95
31
 66.68
0
LINE
8
CentreLine
10
273.14
20
147.95
30
 66.68
11
273.14
21
167.30
31
 66.68
0
LINE
8
CentreLine
10
271.71
20
119.35
30
 66.93
11
273.14
21
119.35
31
 66.68
0
LINE
8
CentreLine
10
273.14
20
119.35
30
 66.68
11
273.14
21
167.30
31
 66.68
0
LINE
8
CentreLine
10
271.71
20
119.35
30
 66.93
11
262.77
21
117.58
31
 59.81
0
LINE
8
CentreLine
10
262.77
20
117.58
30
 59.81
11
261.42
21
119.01
31
 65.42
0
LINE
8
CentreLine
10
261.42
20
119.01
30
 65.42
11
254.76
21
118.55
31
 79.90
0
LINE
8
CentreLine
10
254.76
20
118.55
30
 79.90
11
258.19
21
112.35
31
 84.60
0
LINE
8
CentreLine
10
258.19
20
112.35
30
 84.60
11
258.02
21
108.21
31
 94.63
0
LINE
8
CentreLine
10
258.02
20
108.21
30
 94.63
11
267.31
21
115.59
31
 80.06
0
LINE
8
CentreLine
10
267.31
20
115.59
30
 80.06
11
270.06
21
118.02
31
 77.21
0
LINE
8
CentreLine
10
270.06
20
118.02
30
 77.21
11
273.96
21
119.43
31
 71.38
0
LINE
8
CentreLine
10
273.96
20
119.43
30
 71.38
11
271.71
21
119.35
31
 66.93
0
LINE
8
CentreLine
10
 79.29
20
294.03
30
-72.56
11
 79.29
21
315.46
31
-72.56
0
LINE
8
CentreLine
10
 79.29
20
315.46
30
-72.56
11
 77.91
21
320.51
31
-76.57
0
LINE
8
CentreLine
10
 77.91
20
320.51
30
-76.57
11
 78.11
21
324.98
31
-77.42
0
LINE
8
CentreLine
10
 78.11
20
324.98
30
-77.42
11
 77.28
21
326.97
31
-79.46
0
LINE
8
CentreLine
10
 77.28
20
326.97
30
-79.46
11
 75.09
21
329.23
31
-84.62
0
LINE
8
CentreLine
10
 75.09
20
329.23
30
-84.62
11
 77.71
21
339.63
31
-89.75
0
LINE
8
CentreLine
10
 77.71
20
339.63
30
-89.75
11
 80.41
21
340.74
31
-93.75
0
LINE
8
CentreLine
10
 80.41
20
340.74
30
-93.75
11
 80.58
21
345.33
31
-98.67
0
LINE
8
CentreLine
10
 80.58
20
345.33
30
-98.67
11
 82.52
21
345.83
31
-99.98
0
LINE
8
CentreLine
10
 82.52
20
345.83
30
-99.98
11
 80.32
21
346.49
31
-103.01
0
LINE
8
CentreLine
10
 80.32
20
346.49
30
-103.01
11
 81.31
21
347.04
31
-104.15
0
LINE
8
CentreLine
10
 81.31
20
347.04
30
-104.15
11
 83.07
21
348.19
31
-106.40
0
LINE
8
CentreLine
10
 83.07
20
348.19
30
-106.40
11
 85.03
21
347.92
31
-104.69
0
LINE
8
CentreLine
10
 85.03
20
347.92
30
-104.69
11
 90.66
21
349.32
31
-106.97
0
LINE
8
CentreLine
10
 90.66
20
349.32
30
-106.97
11
 92.36
21
350.13
31
-105.33
0
LINE
8
CentreLine
10
 92.36
20
350.13
30
-105.33
11
 93.33
21
351.28
31
-108.96
0
LINE
8
CentreLine
10
 93.33
20
351.28
30
-108.96
11
101.25
21
353.32
31
-112.82
0
LINE
8
CentreLine
10
101.25
20
353.32
30
-112.82
11
107.18
21
352.05
31
-113.66
0
LINE
8
CentreLine
10
107.18
20
352.05
30
-113.66
11
108.60
21
348.43
31
-114.01
0
LINE
8
CentreLine
10
108.60
20
348.43
30
-114.01
11
112.33
21
346.98
31
-107.55
0
LINE
8
CentreLine
10
112.33
20
346.98
30
-107.55
11
114.85
21
345.05
31
-107.95
0
LINE
8
CentreLine
10
114.85
20
345.05
30
-107.95
11
116.81
21
339.32
31
-108.66
0
LINE
8
CentreLine
10
116.81
20
339.32
30
-108.66
11
116.81
21
271.89
31
-108.66
0
LINE
8
CentreLine
10
116.81
20
271.89
30
-108.66
11
116.81
21
258.29
31
-108.66
0
LINE
8
CentreLine
10
116.81
20
258.29
30
-108.66
11
116.81
21
231.99
31
-108.66
0
LINE
8
CentreLine
10
116.81
20
231.99
30
-108.66
11
114.76
21
231.90
31
-103.82
0
LINE
8
CentreLine
10
 79.29
20
294.03
30
-72.56
11
 85.90
21
301.23
31
-61.98
0
LINE
8
CentreLine
10
 85.90
20
301.23
30
-61.98
11
 84.28
21
301.93
31
-55.48
0
LINE
8
CentreLine
10
 84.28
20
301.93
30
-55.48
11
 87.33
21
296.86
31
-33.74
0
LINE
8
CentreLine
10
 87.33
20
296.86
30
-33.74
11
 97.54
21
298.68
31
-35.36
0
LINE
8
CentreLine
10
 97.54
20
298.68
30
-35.36
11
102.24
21
295.90
31
-23.12
0
LINE
8
CentreLine
10
102.24
20
295.90
30
-23.12
11
102.24
21
296.90
31
-23.12
0
LINE
8
CentreLine
10
102.24
20
296.90
30
-23.12
11
119.24
21
298.63
31
-12.90
0
LINE
8
CentreLine
10
119.24
20
298.63
30
-12.90
11
138.95
21
301.60
31
 -5.34
0
LINE
8
CentreLine
10
138.95
20
301.60
30
 -5.34
11
145.63
21
301.46
31
 -1.16
0
LINE
8
CentreLine
10
145.63
20
301.46
30
 -1.16
11
164.40
21
307.80
31
  6.04
0
LINE
8
CentreLine
10
164.40
20
307.80
30
  6.04
11
169.74
21
314.24
31
  3.32
0
LINE
8
CentreLine
10
169.74
20
314.24
30
  3.32
11
172.55
21
314.81
31
 13.80
0
LINE
8
CentreLine
10
172.55
20
314.81
30
 13.80
11
185.91
21
305.00
31
  2.20
0
LINE
8
CentreLine
10
185.91
20
305.00
30
  2.20
11
191.68
21
309.10
31
 -0.37
0
LINE
8
CentreLine
10
191.68
20
309.10
30
 -0.37
11
195.53
21
313.23
31
-10.42
0
LINE
8
CentreLine
10
195.53
20
313.23
30
-10.42
11
209.20
21
322.46
31
-22.31
0
LINE
8
CentreLine
10
209.20
20
322.46
30
-22.31
11
224.74
21
335.43
31
-32.39
0
LINE
8
CentreLine
10
224.74
20
335.43
30
-32.39
11
227.77
21
339.19
31
-34.85
0
LINE
8
CentreLine
10
227.77
20
339.19
30
-34.85
11
227.28
21
341.08
31
-41.88
0
LINE
8
CentreLine
10
227.28
20
341.08
30
-41.88
11
225.06
21
340.62
31
-45.71
0
LINE
8
CentreLine
10
225.06
20
340.62
30
-45.71
11
229.23
21
343.64
31
-42.90
0
LINE
8
CentreLine
10
229.23
20
343.64
30
-42.90
11
239.33
21
346.18
31
-41.66
0
LINE
8
CentreLine
10
239.33
20
346.18
30
-41.66
11
254.23
21
351.40
31
-35.64
0
LINE
8
CentreLine
10
254.23
20
351.40
30
-35.64
11
265.69
21
351.04
31
-18.66
0
LINE
8
CentreLine
10
-22.10
20
244.88
30
-133.57
11
  5.41
21
251.23
31
-134.53
0
LINE
8
CentreLine
10
  5.41
20
251.23
30
-134.53
11
 14.38
21
257.36
31
-133.11
0
LINE
8
CentreLine
10
 14.38
20
257.36
30
-133.11
11
 14.38
21
255.86
31
-133.11
0
LINE
8
CentreLine
10
 14.38
20
255.86
30
-133.11
11
 23.31
21
264.96
31
-125.63
0
LINE
8
CentreLine
10
 23.31
20
264.96
30
-125.63
11
 15.85
21
272.41
31
-115.73
0
LINE
8
CentreLine
10
 15.85
20
272.41
30
-115.73
11
 36.04
21
277.81
31
-116.09
0
LINE
8
CentreLine
10
 36.04
20
277.81
30
-116.09
11
 58.54
21
289.05
31
-99.74
0
LINE
8
CentreLine
10
 58.54
20
289.05
30
-99.74
11
 57.42
21
290.19
31
-97.44
0
LINE
8
CentreLine
10
 57.42
20
290.19
30
-97.44
11
 73.23
21
294.86
31
-82.17
0
LINE
8
CentreLine
10
 73.23
20
294.86
30
-82.17
11
 71.90
21
295.20
31
-72.69
0
LINE
8
CentreLine
10
 71.90
20
295.20
30
-72.69
11
 79.29
21
294.03
31
-72.56
0
LINE
8
CentreLine
10
-56.40
20
222.88
30
-121.63
11
-36.93
21
239.37
31
-127.58
0
LINE
8
CentreLine
10
-36.93
20
239.37
30
-127.58
11
-22.10
21
244.88
31
-133.57
0
LINE
8
CentreLine
10
-56.40
20
222.88
30
-121.63
11
-61.31
21
228.27
31
-126.46
0
LINE
8
CentreLine
10
-61.31
20
228.27
30
-126.46
11
-61.17
21
218.16
31
-129.56
0
LINE
8
CentreLine
10
-61.17
20
218.16
30
-129.56
11
-61.23
21
207.92
31
-130.08
0
LINE
8
CentreLine
10
-61.23
20
207.92
30
-130.08
11
-61.31
21
185.73
31
-130.19
0
LINE
8
CentreLine
10
-61.31
20
185.73
30
-130.19
11
-63.43
21
154.35
31
-127.11
0
LINE
8
CentreLine
10
-63.43
20
154.35
30
-127.11
11
-68.72
21
152.40
31
-129.25
0
LINE
8
CentreLine
10
-68.72
20
152.40
30
-129.25
11
-62.45
21
154.15
31
-128.22
0
LINE
8
CentreLine
10
-62.45
20
154.15
30
-128.22
11
-58.34
21
154.07
31
-130.84
0
LINE
8
CentreLine
10
-58.34
20
154.07
30
-130.84
11
-58.86
21
170.63
31
-131.04
0
LINE
8
CentreLine
10
-58.86
20
170.63
30
-131.04
11
-52.45
21
173.09
31
-129.99
0
LINE
8
CentreLine
10
-52.45
20
173.09
30
-129.99
11
-50.07
21
175.37
31
-124.25
0
LINE
8
CentreLine
10
-50.07
20
175.37
30
-124.25
11
-50.44
21
188.93
31
-124.40
0
LINE
8
CentreLine
10
-50.44
20
188.93
30
-124.40
11
-50.31
21
189.14
31
-121.24
0
LINE
8
CentreLine
10
-50.31
20
189.14
30
-121.24
11
-48.11
21
189.33
31
-119.94
0
LINE
8
CentreLine
10
-48.11
20
189.33
30
-119.94
11
-48.20
21
186.65
31
-119.98
0
LINE
8
CentreLine
10
-48.20
20
186.65
30
-119.98
11
-48.29
21
186.78
31
-118.77
0
LINE
8
CentreLine
10
-48.29
20
186.78
30
-118.77
11
-46.83
21
186.82
31
-116.54
0
LINE
8
CentreLine
10
-46.83
20
186.82
30
-116.54
11
-47.05
21
196.65
31
-116.63
0
LINE
8
CentreLine
10
-47.05
20
196.65
30
-116.63
11
-47.13
21
199.06
31
-117.49
0
LINE
8
CentreLine
10
-47.13
20
199.06
30
-117.49
11
-45.59
21
199.91
31
-113.85
0
LINE
8
CentreLine
10
-45.59
20
199.91
30
-113.85
11
-45.94
21
212.94
31
-113.99
0
LINE
8
CentreLine
10
-45.94
20
212.94
30
-113.99
11
-45.57
21
216.82
31
-115.27
0
LINE
8
CentreLine
10
-45.57
20
216.82
30
-115.27
11
-44.54
21
217.27
31
-116.65
0
LINE
8
CentreLine
10
-44.54
20
217.27
30
-116.65
11
-48.95
21
222.26
31
-120.22
0
LINE
8
CentreLine
10
-48.95
20
222.26
30
-120.22
11
-56.40
21
222.88
31
-121.63
0
LINE
8
CentreLine
10
-199.75
20
-254.82
30
 69.84
11
-201.92
21
-257.66
31
 74.11
0
LINE
8
CentreLine
10
-201.92
20
-257.66
30
 74.11
11
-205.60
21
-259.87
31
 77.54
0
LINE
8
CentreLine
10
-205.60
20
-259.87
30
 77.54
11
-210.83
21
-264.07
31
 81.35
0
LINE
8
CentreLine
10
-210.83
20
-264.07
30
 81.35
11
-211.92
21
-267.03
31
 82.38
0
LINE
8
CentreLine
10
-211.92
20
-267.03
30
 82.38
11
-213.25
21
-269.43
31
 82.54
0
LINE
8
CentreLine
10
-213.25
20
-269.43
30
 82.54
11
-215.91
21
-270.54
31
 80.93
0
LINE
8
CentreLine
10
-215.91
20
-270.54
30
 80.93
11
-217.72
21
-268.14
31
 76.00
0
LINE
8
CentreLine
10
-217.72
20
-268.14
30
 76.00
11
-217.74
21
-267.79
31
 75.87
0
LINE
8
CentreLine
10
-217.74
20
-267.79
30
 75.87
11
-214.94
21
-263.77
31
 76.36
0
LINE
8
CentreLine
10
-214.94
20
-263.77
30
 76.36
11
-217.07
21
-261.61
31
 68.63
0
LINE
8
CentreLine
10
-217.07
20
-261.61
30
 68.63
11
-210.81
21
-255.44
31
 63.14
0
LINE
8
CentreLine
10
-210.81
20
-255.44
30
 63.14
11
-211.03
21
-254.45
31
 69.10
0
LINE
8
CentreLine
10
-211.03
20
-254.45
30
 69.10
11
-206.01
21
-254.09
31
 71.20
0
LINE
8
CentreLine
10
-206.01
20
-254.09
30
 71.20
11
-201.48
21
-253.30
31
 71.89
0
LINE
8
CentreLine
10
-201.48
20
-253.30
30
 71.89
11
-201.50
21
-255.90
31
 71.75
0
LINE
8
CentreLine
10
-201.50
20
-255.90
30
 71.75
11
-199.75
21
-254.82
31
 69.84
0
LINE
8
CentreLine
10
-199.75
20
-254.82
30
 69.84
11
-197.39
21
-251.55
31
 66.20
0
LINE
8
CentreLine
10
-197.39
20
-251.55
30
 66.20
11
-196.30
21
-252.86
31
 65.49
0
LINE
8
CentreLine
10
-196.30
20
-252.86
30
 65.49
11
-193.62
21
-251.58
31
 64.13
0
LINE
8
CentreLine
10
-193.62
20
-251.58
30
 64.13
11
-190.06
21
-245.82
31
 61.64
0
LINE
8
CentreLine
10
-190.06
20
-245.82
30
 61.64
11
-187.35
21
-245.04
31
 61.64
0
LINE
8
CentreLine
10
-187.35
20
-245.04
30
 61.64
11
-184.15
21
-244.15
31
 63.80
0
LINE
8
CentreLine
10
-184.15
20
-244.15
30
 63.80
11
-179.92
21
-238.70
31
 63.36
0
LINE
8
CentreLine
10
-179.92
20
-238.70
30
 63.36
11
-176.02
21
-237.70
31
 64.33
0
LINE
8
CentreLine
10
-176.02
20
-237.70
30
 64.33
11
-173.72
21
-226.39
31
 57.65
0
LINE
8
CentreLine
10
-173.72
20
-226.39
30
 57.65
11
-167.38
21
-204.53
31
 52.14
0
LINE
8
CentreLine
10
-167.38
20
-204.53
30
 52.14
11
-164.00
21
-195.67
31
 50.98
0
LINE
8
CentreLine
10
-164.00
20
-195.67
30
 50.98
11
-162.11
21
-192.00
31
 51.45
0
LINE
8
CentreLine
10
-162.11
20
-192.00
30
 51.45
11
-159.55
21
-191.44
31
 50.86
0
LINE
8
CentreLine
10
-159.55
20
-191.44
30
 50.86
11
-157.69
21
-191.44
31
 55.71
0
LINE
8
CentreLine
10
-157.69
20
-191.44
30
 55.71
11
-155.72
21
-190.94
31
 59.27
0
LINE
8
CentreLine
10
-155.72
20
-190.94
30
 59.27
11
-155.35
21
-190.49
31
 61.60
0
LINE
8
CentreLine
10
-155.35
20
-190.49
30
 61.60
11
-153.28
21
-190.22
31
 62.27
0
LINE
8
CentreLine
10
-153.28
20
-190.22
30
 62.27
11
-151.12
21
-189.92
31
 66.01
0
LINE
8
CentreLine
10
-151.12
20
-189.92
30
 66.01
11
-150.84
21
-189.95
31
 67.62
0
LINE
8
CentreLine
10
-150.84
20
-189.95
30
 67.62
11
-148.45
21
-189.78
31
 67.78
0
LINE
8
CentreLine
10
-148.45
20
-189.78
30
 67.78
11
-144.85
21
-189.71
31
 69.70
0
LINE
8
CentreLine
10
-144.85
20
-189.71
30
 69.70
11
-142.15
21
-189.61
31
 70.73
0
LINE
8
CentreLine
10
-142.15
20
-189.61
30
 70.73
11
-142.08
21
-189.06
31
 74.59
0
LINE
8
CentreLine
10
-142.08
20
-189.06
30
 74.59
11
-138.55
21
-187.90
31
 75.09
0
LINE
8
CentreLine
10
-138.55
20
-187.90
30
 75.09
11
-136.01
21
-187.90
31
 72.72
0
LINE
8
CentreLine
10
-136.01
20
-187.90
30
 72.72
11
-133.93
21
-187.70
31
 73.88
0
LINE
8
CentreLine
10
-133.93
20
-187.70
30
 73.88
11
-127.00
21
-179.80
31
 69.54
0
LINE
8
CentreLine
10
-127.00
20
-179.80
30
 69.54
11
-126.28
21
-179.45
31
 69.63
0
LINE
8
CentreLine
10
-126.28
20
-179.45
30
 69.63
11
-120.59
21
-174.55
31
 68.32
0
LINE
8
CentreLine
10
-120.59
20
-174.55
30
 68.32
11
-117.53
21
-169.27
31
 62.56
0
LINE
8
CentreLine
10
-117.53
20
-169.27
30
 62.56
11
-113.59
21
-168.29
31
 58.62
0
LINE
8
CentreLine
10
-113.59
20
-168.29
30
 58.62
11
-109.21
21
-166.11
31
 64.23
0
LINE
8
CentreLine
10
-109.21
20
-166.11
30
 64.23
11
-107.61
21
-165.77
31
 70.64
0
LINE
8
CentreLine
10
-107.61
20
-165.77
30
 70.64
11
-107.61
21
-160.72
31
 70.64
0
LINE
8
CentreLine
10
-107.61
20
-160.72
30
 70.64
11
-108.32
21
-159.35
31
 67.33
0
LINE
8
CentreLine
10
-108.32
20
-159.35
30
 67.33
11
-111.70
21
-158.22
31
 63.83
0
LINE
8
CentreLine
10
-111.70
20
-158.22
30
 63.83
11
-110.43
21
-161.75
31
 58.33
0
LINE
8
CentreLine
10
-110.43
20
-161.75
30
 58.33
11
-110.43
21
-140.85
31
 58.33
0
LINE
8
CentreLine
10
-110.43
20
-140.85
30
 58.33
11
-113.56
21
-123.65
31
 52.91
0
LINE
8
CentreLine
10
-113.56
20
-123.65
30
 52.91
11
-113.56
21
-119.45
31
 52.91
0
LINE
8
CentreLine
10
-113.56
20
-119.45
30
 52.91
11
-115.05
21
-119.54
31
 51.98
0
LINE
8
CentreLine
10
-115.05
20
-119.54
30
 51.98
11
-114.02
21
-121.29
31
 46.70
0
LINE
8
CentreLine
10
-114.02
20
-121.29
30
 46.70
11
-113.87
21
-121.54
31
 43.81
0
LINE
8
CentreLine
10
-113.87
20
-121.54
30
 43.81
11
-112.51
21
-121.71
31
 42.44
0
LINE
8
CentreLine
10
-112.51
20
-121.71
30
 42.44
11
-115.68
21
-121.85
31
 40.14
0
LINE
8
CentreLine
10
-115.68
20
-121.85
30
 40.14
11
-114.60
21
-122.83
31
 33.27
0
LINE
8
CentreLine
10
-114.60
20
-122.83
30
 33.27
11
-117.61
21
-123.73
31
 28.45
0
LINE
8
CentreLine
10
-117.61
20
-123.73
30
 28.45
11
-121.40
21
-125.04
31
 28.11
0
LINE
8
CentreLine
10
-121.40
20
-125.04
30
 28.11
11
-123.19
21
-123.89
31
 26.25
0
LINE
8
CentreLine
10
-123.19
20
-123.89
30
 26.25
11
-126.13
21
-125.60
31
 27.56
0
LINE
8
CentreLine
10
-126.13
20
-125.60
30
 27.56
11
-130.84
21
-126.52
31
 26.90
0
LINE
8
CentreLine
10
-130.84
20
-126.52
30
 26.90
11
-133.62
21
-127.16
31
 28.64
0
LINE
8
CentreLine
10
-133.62
20
-127.16
30
 28.64
11
-131.51
21
-125.80
31
 21.26
0
LINE
8
CentreLine
10
-131.51
20
-125.80
30
 21.26
11
-129.57
21
-126.15
31
 16.70
0
LINE
8
CentreLine
10
-129.57
20
-126.15
30
 16.70
11
-123.40
21
-124.83
31
 17.14
0
LINE
8
CentreLine
10
-123.40
20
-124.83
30
 17.14
11
-123.40
21
-122.28
31
 17.14
0
LINE
8
CentreLine
10
-123.40
20
-122.28
30
 17.14
11
-120.71
21
-121.95
31
 15.52
0
LINE
8
CentreLine
10
-120.71
20
-121.95
30
 15.52
11
-115.03
21
-120.97
31
 18.05
0
LINE
8
CentreLine
10
-115.03
20
-120.97
30
 18.05
11
-114.48
21
-120.73
31
 19.17
0
LINE
8
CentreLine
10
-114.48
20
-120.73
30
 19.17
11
-114.66
21
-120.70
31
 20.64
0
LINE
8
CentreLine
10
-114.66
20
-120.70
30
 20.64
11
-110.88
21
-116.96
31
 24.42
0
LINE
8
CentreLine
10
-110.88
20
-116.96
30
 24.42
11
-110.14
21
-118.21
31
 26.27
0
LINE
8
CentreLine
10
-110.14
20
-118.21
30
 26.27
11
-107.48
21
-116.97
31
 26.17
0
LINE
8
CentreLine
10
-107.48
20
-116.97
30
 26.17
11
-105.21
21
-116.43
31
 26.74
0
LINE
8
CentreLine
10
-105.21
20
-116.43
30
 26.74
11
-103.20
21
-115.64
31
 26.35
0
LINE
8
CentreLine
10
-103.20
20
-115.64
30
 26.35
11
-97.87
21
-115.64
31
 21.38
0
LINE
8
CentreLine
10
-97.87
20
-115.64
30
 21.38
11
-97.59
21
-112.80
31
 20.08
0
LINE
8
CentreLine
10
-97.59
20
-112.80
30
 20.08
11
-99.01
21
-111.85
31
 11.13
0
LINE
8
CentreLine
10
-99.01
20
-111.85
30
 11.13
11
-99.01
21
-110.35
31
 11.13
0
LINE
8
CentreLine
10
-99.01
20
-110.35
30
 11.13
11
-88.68
21
-103.48
31
  7.38
0
LINE
8
CentreLine
10
-88.68
20
-103.48
30
  7.38
11
-87.42
21
-102.55
31
  8.17
0
LINE
8
CentreLine
10
-87.42
20
-102.55
30
  8.17
11
-88.46
21
-100.31
31
 11.19
0
LINE
8
CentreLine
10
-88.46
20
-100.31
30
 11.19
11
-91.33
21
-100.54
31
 23.65
0
LINE
8
CentreLine
10
-91.33
20
-100.54
30
 23.65
11
-92.08
21
-100.49
31
 26.27
0
LINE
8
CentreLine
10
-92.08
20
-100.49
30
 26.27
11
-92.97
21
-101.15
31
 38.87
0
LINE
8
CentreLine
10
-92.97
20
-101.15
30
 38.87
11
-86.04
21
-101.15
31
 33.06
0
LINE
8
CentreLine
10
-86.04
20
-101.15
30
 33.06
11
-86.04
21
-93.70
31
 33.06
0
LINE
8
CentreLine
10
-86.04
20
-93.70
30
 33.06
11
-89.59
21
-95.13
31
 31.91
0
LINE
8
CentreLine
10
-89.59
20
-95.13
30
 31.91
11
-96.03
21
-94.46
31
 20.75
0
LINE
8
CentreLine
10
-96.03
20
-94.46
30
 20.75
11
-96.03
21
-87.86
31
 20.75
0
LINE
8
CentreLine
10
-96.03
20
-87.86
30
 20.75
11
-96.97
21
-85.38
31
 17.47
0
LINE
8
CentreLine
10
-96.97
20
-85.38
30
 17.47
11
-91.04
21
-85.59
31
 15.99
0
LINE
8
CentreLine
10
-91.04
20
-85.59
30
 15.99
11
-93.41
21
-83.86
31
 10.42
0
LINE
8
CentreLine
10
-93.41
20
-83.86
30
 10.42
11
-97.38
21
-80.78
31
  2.95
0
LINE
8
CentreLine
10
-97.38
20
-80.78
30
  2.95
11
-97.38
21
-70.06
31
  2.95
0
LINE
8
CentreLine
10
-97.38
20
-70.06
30
  2.95
11
-97.52
21
-67.89
31
  0.27
0
LINE
8
CentreLine
10
-97.52
20
-67.89
30
  0.27
11
-104.30
21
-68.49
31
 -5.03
0
LINE
8
CentreLine
10
-104.30
20
-68.49
30
 -5.03
11
-104.30
21
-58.19
31
 -5.03
0
LINE
8
CentreLine
10
-104.30
20
-58.19
30
 -5.03
11
-107.37
21
-57.70
31
 -5.19
0
LINE
8
CentreLine
10
-107.37
20
-57.70
30
 -5.19
11
-109.70
21
-57.82
31
-11.28
0
LINE
8
CentreLine
10
-109.70
20
-57.82
30
-11.28
11
-99.67
21
-60.62
31
-21.66
0
LINE
8
CentreLine
10
-99.67
20
-60.62
30
-21.66
11
-90.26
21
-58.76
31
-20.00
0
LINE
8
CentreLine
10
-90.26
20
-58.76
30
-20.00
11
-91.81
21
-58.76
31
-29.81
0
LINE
8
CentreLine
10
-91.81
20
-58.76
30
-29.81
11
-94.91
21
-58.76
31
-37.11
0
LINE
8
CentreLine
10
-94.91
20
-58.76
30
-37.11
11
-93.93
21
-57.75
31
-40.78
0
LINE
8
CentreLine
10
-93.93
20
-57.75
30
-40.78
11
-93.93
21
-54.12
31
-40.78
0
LINE
8
CentreLine
10
-93.93
20
-54.12
30
-40.78
11
-96.29
21
-50.46
31
-43.91
0
LINE
8
CentreLine
10
-96.29
20
-50.46
30
-43.91
11
-99.93
21
-52.06
31
-50.49
0
LINE
8
CentreLine
10
-99.93
20
-52.06
30
-50.49
11
-99.93
21
-21.66
31
-50.49
0
LINE
8
CentreLine
10
-99.93
20
-21.66
30
-50.49
11
-99.27
21
-15.10
31
-52.51
0
LINE
8
CentreLine
10
-99.27
20
-15.10
30
-52.51
11
-97.62
21
-10.76
31
-57.61
0
LINE
8
CentreLine
10
-97.62
20
-10.76
30
-57.61
11
-97.53
21
 -8.74
31
-62.61
0
LINE
8
CentreLine
10
-97.53
20
 -8.74
30
-62.61
11
-99.96
21
 -7.08
31
-63.69
0
LINE
8
CentreLine
10
-99.96
20
 -7.08
30
-63.69
11
-99.76
21
 -6.74
31
-67.50
0
LINE
8
CentreLine
10
-99.76
20
 -6.74
30
-67.50
11
-96.34
21
 -5.81
31
-73.18
0
LINE
8
CentreLine
10
-96.34
20
 -5.81
30
-73.18
11
-96.14
21
 -3.49
31
-78.93
0
LINE
8
CentreLine
10
-96.14
20
 -3.49
30
-78.93
11
-98.09
21
 15.96
31
-82.17
0
LINE
8
CentreLine
10
-98.09
20
 15.96
30
-82.17
11
-99.27
21
 16.68
31
-84.60
0
LINE
8
CentreLine
10
-99.27
20
 16.68
30
-84.60
11
-102.70
21
 19.35
31
-82.93
0
LINE
8
CentreLine
10
-102.70
20
 19.35
30
-82.93
11
-105.49
21
 30.07
31
-88.18
0
LINE
8
CentreLine
10
-105.49
20
 30.07
30
-88.18
11
-107.04
21
 29.76
31
-92.23
0
LINE
8
CentreLine
10
-107.04
20
 29.76
30
-92.23
11
-99.57
21
 31.29
31
-89.80
0
LINE
8
CentreLine
10
-99.57
20
 31.29
30
-89.80
11
-94.39
21
 31.10
31
-88.70
0
LINE
8
CentreLine
10
-94.39
20
 31.10
30
-88.70
11
-93.34
21
 39.30
31
-92.93
0
LINE
8
CentreLine
10
-93.34
20
 39.30
30
-92.93
11
-91.60
21
 41.80
31
-95.23
0
LINE
8
CentreLine
10
-91.60
20
 41.80
30
-95.23
11
-93.83
21
 40.83
31
-100.61
0
LINE
8
CentreLine
10
-93.83
20
 40.83
30
-100.61
11
-93.83
21
 68.02
31
-100.61
0
LINE
8
CentreLine
10
-93.83
20
 68.02
30
-100.61
11
-93.83
21
 77.31
31
-100.61
0
LINE
8
CentreLine
10
-93.83
20
 77.31
30
-100.61
11
-93.83
21
 79.53
31
-100.61
0
LINE
8
CentreLine
10
-93.83
20
 79.53
30
-100.61
11
-93.83
21
102.83
31
-100.61
0
LINE
8
CentreLine
10
-93.83
20
102.83
30
-100.61
11
-93.83
21
114.74
31
-100.61
0
LINE
8
CentreLine
10
-93.83
20
114.74
30
-100.61
11
-93.83
21
133.52
31
-100.61
0
LINE
8
CentreLine
10
-93.83
20
133.52
30
-100.61
11
-95.51
21
134.21
31
-102.10
0
LINE
8
CentreLine
10
-95.51
20
134.21
30
-102.10
11
-94.11
21
136.57
31
-100.79
0
LINE
8
CentreLine
10
-94.11
20
136.57
30
-100.79
11
-95.75
21
138.17
31
-100.10
0
LINE
8
CentreLine
10
-95.75
20
138.17
30
-100.10
11
-95.97
21
140.22
31
-101.68
0
LINE
8
CentreLine
10
-95.97
20
140.22
30
-101.68
11
-94.42
21
144.43
31
-111.49
0
LINE
8
CentreLine
10
-94.42
20
144.43
30
-111.49
11
-95.73
21
143.09
31
-117.16
0
LINE
8
CentreLine
10
-95.73
20
143.09
30
-117.16
11
-97.26
21
150.21
31
-126.85
0
LINE
8
CentreLine
10
-97.26
20
150.21
30
-126.85
11
-97.54
21
151.34
31
-130.78
0
LINE
8
CentreLine
10
-97.54
20
151.34
30
-130.78
11
-97.54
21
194.73
31
-130.78
0
LINE
8
CentreLine
10
-97.54
20
194.73
30
-130.78
11
-98.30
21
194.90
31
-130.44
0
LINE
8
CentreLine
10
-98.30
20
194.90
30
-130.44
11
-99.40
21
197.12
31
-134.87
0
LINE
8
CentreLine
10
-99.40
20
197.12
30
-134.87
11
-103.33
21
197.56
31
-136.30
0
LINE
8
CentreLine
10
-103.33
20
197.56
30
-136.30
11
-101.76
21
197.67
31
-138.81
0
LINE
8
CentreLine
10
-101.76
20
197.67
30
-138.81
11
-97.77
21
198.30
31
-138.60
0
LINE
8
CentreLine
10
-97.77
20
198.30
30
-138.60
11
-96.24
21
199.32
31
-135.83
0
LINE
8
CentreLine
10
-96.24
20
199.32
30
-135.83
11
-96.73
21
200.20
31
-135.03
0
LINE
8
CentreLine
10
-96.73
20
200.20
30
-135.03
11
-95.53
21
199.64
31
-132.05
0
LINE
8
CentreLine
10
-95.53
20
199.64
30
-132.05
11
-86.50
21
196.69
31
-131.10
0
LINE
8
CentreLine
10
-86.50
20
196.69
30
-131.10
11
-97.74
21
210.34
31
-117.71
0
LINE
8
CentreLine
10
-97.74
20
210.34
30
-117.71
11
-78.74
21
205.36
31
-111.54
0
LINE
8
CentreLine
10
-78.74
20
205.36
30
-111.54
11
-69.48
21
219.08
31
-100.11
0
LINE
8
CentreLine
10
-69.48
20
219.08
30
-100.11
11
-55.12
21
229.45
31
-119.87
0
LINE
8
CentreLine
10
-55.12
20
229.45
30
-119.87
11
-44.46
21
236.00
31
-123.75
0
LINE
8
CentreLine
10
-44.46
20
236.00
30
-123.75
11
-33.47
21
244.28
31
-132.98
0
LINE
8
CentreLine
10
-33.47
20
244.28
30
-132.98
11
-22.10
21
244.88
31
-133.57
0
LINE
8
CentreLine
10
108.60
20
348.43
30
-114.01
11
 94.67
21
350.25
31
-129.48
0
LINE
8
CentreLine
10
 94.67
20
350.25
30
-129.48
11
100.02
21
350.25
31
-131.97
0
LINE
8
CentreLine
10
100.02
20
350.25
30
-131.97
11
100.02
21
354.15
31
-131.97
0
LINE
8
CentreLine
10
100.02
20
354.15
30
-131.97
11
 97.96
21
352.66
31
-131.42
0
LINE
8
CentreLine
10
 97.96
20
352.66
30
-131.42
11
 97.21
21
352.66
31
-135.66
0
LINE
8
CentreLine
10
 97.21
20
352.66
30
-135.66
11
 97.21
21
367.86
31
-135.66
0
LINE
8
CentreLine
10
 97.21
20
367.86
30
-135.66
11
 99.39
21
368.48
31
-136.45
0
LINE
8
CentreLine
10
 99.39
20
368.48
30
-136.45
11
101.46
21
368.69
31
-135.26
0
LINE
8
CentreLine
10
101.46
20
368.69
30
-135.26
11
102.29
21
368.14
31
-135.73
0
LINE
8
CentreLine
10
102.29
20
368.14
30
-135.73
11
104.15
21
369.10
31
-137.59
0
LINE
8
CentreLine
10
104.15
20
369.10
30
-137.59
11
105.06
21
369.10
31
-136.28
0
LINE
8
CentreLine
10
105.06
20
369.10
30
-136.28
11
106.57
21
369.10
31
-136.83
0
LINE
8
CentreLine
10
106.57
20
369.10
30
-136.83
11
107.77
21
368.25
31
-135.98
0
LINE
8
CentreLine
10
107.77
20
368.25
30
-135.98
11
109.70
21
366.58
31
-136.50
0
LINE
8
CentreLine
10
109.70
20
366.58
30
-136.50
11
111.90
21
366.81
31
-134.96
0
LINE
8
CentreLine
10
111.90
20
366.81
30
-134.96
11
111.90
21
372.51
31
-134.96
0
LINE
8
CentreLine
10
111.90
20
372.51
30
-134.96
11
116.57
21
372.51
31
-131.04
0
LINE
8
CentreLine
10
116.57
20
372.51
30
-131.04
11
118.41
21
373.02
31
-133.22
0
LINE
8
CentreLine
10
118.41
20
373.02
30
-133.22
11
120.19
21
373.36
31
-134.06
0
LINE
8
CentreLine
10
120.19
20
373.36
30
-134.06
11
124.41
21
370.87
31
-137.35
0
LINE
8
CentreLine
10
124.41
20
370.87
30
-137.35
11
124.41
21
368.77
31
-137.35
0
LINE
8
CentreLine
10
124.41
20
368.77
30
-137.35
11
127.79
21
368.77
31
-136.12
0
LINE
8
CentreLine
10
127.79
20
368.77
30
-136.12
11
127.79
21
374.17
31
-136.12
0
LINE
8
CentreLine
10
127.79
20
374.17
30
-136.12
11
129.30
21
374.17
31
-134.19
0
LINE
8
CentreLine
10
129.30
20
374.17
30
-134.19
11
129.24
21
375.57
31
-133.53
0
LINE
8
CentreLine
10
129.24
20
375.57
30
-133.53
11
127.83
21
376.50
31
-127.88
0
LINE
8
CentreLine
10
127.83
20
376.50
30
-127.88
11
128.39
21
376.50
31
-130.11
0
LINE
8
CentreLine
10
128.39
20
376.50
30
-130.11
11
128.39
21
383.90
31
-130.11
0
LINE
8
CentreLine
10
128.39
20
383.90
30
-130.11
11
126.81
21
383.90
31
-131.64
0
LINE
8
CentreLine
10
126.81
20
383.90
30
-131.64
11
126.81
21
388.70
31
-131.64
0
LINE
8
CentreLine
10
126.81
20
388.70
30
-131.64
11
129.01
21
390.55
31
-133.63
0
LINE
8
CentreLine
10
129.01
20
390.55
30
-133.63
11
128.16
21
391.82
31
-135.97
0
LINE
8
CentreLine
10
128.16
20
391.82
30
-135.97
11
132.35
21
394.76
31
-138.49
0
LINE
8
CentreLine
10
132.35
20
394.76
30
-138.49
11
131.82
21
394.23
31
-140.02
0
LINE
8
CentreLine
10
131.82
20
394.23
30
-140.02
11
133.59
21
393.69
31
-141.55
0
LINE
8
CentreLine
10
133.59
20
393.69
30
-141.55
11
134.86
21
394.37
31
-141.14
0
LINE
8
CentreLine
10
134.86
20
394.37
30
-141.14
11
135.04
21
394.19
31
-143.77
0
LINE
8
CentreLine
10
135.04
20
394.19
30
-143.77
11
136.79
21
396.62
31
-143.59
0
LINE
8
CentreLine
10
136.79
20
396.62
30
-143.59
11
138.16
21
397.33
31
-144.86
0
LINE
8
CentreLine
10
138.16
20
397.33
30
-144.86
11
140.02
21
399.14
31
-143.35
0
LINE
8
CentreLine
10
140.02
20
399.14
30
-143.35
11
140.84
21
399.02
31
-143.56
0
LINE
8
CentreLine
10
140.84
20
399.02
30
-143.56
11
145.07
21
397.30
31
-143.04
0
LINE
8
CentreLine
10
145.07
20
397.30
30
-143.04
11
145.46
21
403.18
31
-140.82
0
LINE
8
CentreLine
10
145.46
20
403.18
30
-140.82
11
146.09
21
403.18
31
-138.50
0
LINE
8
CentreLine
10
146.09
20
403.18
30
-138.50
11
149.32
21
403.42
31
-139.81
0
LINE
8
CentreLine
10
149.32
20
403.42
30
-139.81
11
152.68
21
402.46
31
-139.57
0
LINE
8
CentreLine
10
152.68
20
402.46
30
-139.57
11
152.68
21
405.86
31
-139.57
0
LINE
8
CentreLine
10
152.68
20
405.86
30
-139.57
11
154.12
21
407.47
31
-140.83
0
LINE
8
CentreLine
10
154.12
20
407.47
30
-140.83
11
155.17
21
409.10
31
-141.01
0
LINE
8
CentreLine
10
155.17
20
409.10
30
-141.01
11
156.77
21
408.20
31
-142.40
0
LINE
8
CentreLine
10
156.77
20
408.20
30
-142.40
11
156.03
21
407.43
31
-143.45
0
LINE
8
CentreLine
10
156.03
20
407.43
30
-143.45
11
157.39
21
406.57
31
-144.56
0
LINE
8
CentreLine
10
157.39
20
406.57
30
-144.56
11
159.29
21
407.26
31
-147.17
0
LINE
8
CentreLine
10
159.29
20
407.26
30
-147.17
11
159.29
21
415.06
31
-147.17
0
LINE
8
CentreLine
10
159.29
20
415.06
30
-147.17
11
163.01
21
412.91
31
-147.17
0
LINE
8
CentreLine
10
163.01
20
412.91
30
-147.17
11
164.94
21
412.91
31
-149.47
0
LINE
8
CentreLine
10
164.94
20
412.91
30
-149.47
11
167.03
21
413.09
31
-149.47
0
LINE
8
CentreLine
10
167.03
20
413.09
30
-149.47
11
169.96
21
412.41
31
-150.83
0
LINE
8
CentreLine
10
169.96
20
412.41
30
-150.83
11
172.31
21
411.55
31
-150.79
0
LINE
8
CentreLine
10
172.31
20
411.55
30
-150.79
11
172.31
21
414.55
31
-150.79
0
LINE
8
CentreLine
10
172.31
20
414.55
30
-150.79
11
174.95
21
414.79
31
-150.28
0
LINE
8
CentreLine
10
174.95
20
414.79
30
-150.28
11
173.08
21
414.29
31
-152.02
0
LINE
8
CentreLine
10
174.95
20
414.79
30
-150.28
11
177.25
21
414.79
31
-150.36
0
LINE
8
CentreLine
10
177.25
20
414.79
30
-150.36
11
177.25
21
422.29
31
-150.36
0
LINE
8
CentreLine
10
177.25
20
422.29
30
-150.36
11
179.66
21
422.29
31
-151.00
0
LINE
8
CentreLine
10
179.66
20
422.29
30
-151.00
11
179.66
21
428.69
31
-151.00
0
LINE
8
CentreLine
10
179.66
20
428.69
30
-151.00
11
179.66
21
430.19
31
-151.00
0
LINE
8
CentreLine
10
179.66
20
430.19
30
-151.00
11
182.68
21
429.66
31
-149.53
0
LINE
8
CentreLine
10
182.68
20
429.66
30
-149.53
11
184.97
21
429.86
31
-149.45
0
LINE
8
CentreLine
10
184.97
20
429.86
30
-149.45
11
184.97
21
426.46
31
-149.45
0
LINE
8
CentreLine
10
184.97
20
426.46
30
-149.45
11
190.33
21
429.56
31
-149.17
0
LINE
8
CentreLine
10
190.33
20
429.56
30
-149.17
11
191.62
21
429.56
31
-147.64
0
LINE
8
CentreLine
10
191.62
20
429.56
30
-147.64
11
191.62
21
454.36
31
-147.64
0
LINE
8
CentreLine
10
191.62
20
454.36
30
-147.64
11
192.42
21
454.36
31
-148.66
0
LINE
8
CentreLine
10
192.42
20
454.36
30
-148.66
11
192.85
21
454.36
31
-147.33
0
LINE
8
CentreLine
10
192.85
20
454.36
30
-147.33
11
197.33
21
456.08
31
-147.25
0
LINE
8
CentreLine
10
197.33
20
456.08
30
-147.25
11
195.33
21
456.08
31
-147.29
0
LINE
8
CentreLine
10
195.33
20
456.08
30
-147.29
11
195.33
21
464.58
31
-147.29
0
LINE
8
CentreLine
10
195.33
20
464.58
30
-147.29
11
199.26
21
465.45
31
-148.49
0
LINE
8
CentreLine
10
199.26
20
465.45
30
-148.49
11
199.50
21
465.74
31
-149.73
0
LINE
8
CentreLine
10
199.50
20
465.74
30
-149.73
11
201.37
21
466.60
31
-150.77
0
LINE
8
CentreLine
10
201.37
20
466.60
30
-150.77
11
201.42
21
466.92
31
-152.23
0
LINE
8
CentreLine
10
201.42
20
466.92
30
-152.23
11
202.47
21
467.50
31
-152.25
0
LINE
8
CentreLine
10
202.47
20
467.50
30
-152.25
11
203.60
21
468.57
31
-152.60
0
LINE
8
CentreLine
10
203.60
20
468.57
30
-152.60
11
204.80
21
468.61
31
-152.64
0
LINE
8
CentreLine
10
204.80
20
468.61
30
-152.64
11
206.51
21
469.88
31
-154.75
0
LINE
8
CentreLine
10
195.33
20
456.08
30
-147.29
11
195.33
21
460.78
31
-147.29
0
LINE
8
CentreLine
10
195.33
20
460.78
30
-147.29
11
189.61
21
458.62
31
-148.82
0
LINE
8
CentreLine
10
189.61
20
458.62
30
-148.82
11
188.26
21
458.62
31
-147.80
0
LINE
8
CentreLine
10
188.26
20
458.62
30
-147.80
11
188.38
21
458.62
31
-147.11
0
LINE
8
CentreLine
10
188.38
20
458.62
30
-147.11
11
186.07
21
457.27
31
-146.70
0
LINE
8
CentreLine
10
186.07
20
457.27
30
-146.70
11
187.22
21
455.34
31
-144.71
0
LINE
8
CentreLine
10
187.22
20
455.34
30
-144.71
11
186.23
21
455.34
31
-144.80
0
LINE
8
CentreLine
10
186.23
20
455.34
30
-144.80
11
186.27
21
454.37
31
-142.61
0
LINE
8
CentreLine
10
186.27
20
454.37
30
-142.61
11
183.92
21
452.66
31
-146.68
0
LINE
8
CentreLine
10
127.83
20
376.50
30
-127.88
11
127.83
21
369.50
31
-127.88
0
LINE
8
CentreLine
10
127.83
20
369.50
30
-127.88
11
130.71
21
366.10
31
-126.08
0
LINE
8
CentreLine
10
130.71
20
366.10
30
-126.08
11
130.71
21
357.80
31
-126.08
0
LINE
8
CentreLine
10
130.71
20
357.80
30
-126.08
11
129.21
21
357.80
31
-124.47
0
LINE
8
CentreLine
10
129.21
20
357.80
30
-124.47
11
128.32
21
357.80
31
-120.27
0
LINE
8
CentreLine
10
127.83
20
376.50
30
-127.88
11
127.34
21
376.50
31
-120.90
0
LINE
8
CentreLine
10
129.30
20
374.17
30
-134.19
11
129.30
21
374.17
31
-132.54
0
LINE
8
CentreLine
10
129.30
20
374.17
30
-132.54
11
130.27
21
377.00
31
-135.19
0
LINE
8
CentreLine
10
100.02
20
354.15
30
-131.97
11
104.44
21
356.27
31
-127.71
0
LINE
8
CentreLine
10
100.02
20
350.25
30
-131.97
11
100.02
21
338.95
31
-131.97
0
LINE
8
CentreLine
10
100.02
20
338.95
30
-131.97
11
100.02
21
338.95
31
-129.37
0
LINE
8
CentreLine
10
100.02
20
338.95
30
-129.37
11
100.02
21
335.45
31
-129.37
0
LINE
8
CentreLine
10
100.02
20
335.45
30
-129.37
11
 99.09
21
335.45
31
-126.84
0
LINE
8
CentreLine
10
 99.09
20
335.45
30
-126.84
11
 99.09
21
322.35
31
-126.84
0
LINE
8
CentreLine
10
 99.09
20
322.35
30
-126.84
11
 99.53
21
322.35
31
-125.20
0
LINE
8
CentreLine
10
 99.53
20
322.35
30
-125.20
11
 99.53
21
316.45
31
-125.20
0
LINE
8
CentreLine
10
 99.53
20
316.45
30
-125.20
11
102.39
21
316.45
31
-123.55
0
LINE
8
CentreLine
10
108.60
20
348.43
30
-114.01
11
108.92
21
346.24
31
-116.59
0
LINE
8
CentreLine
10
108.92
20
346.24
30
-116.59
11
108.92
21
335.64
31
-116.59
0
LINE
8
CentreLine
10
108.60
20
348.43
30
-114.01
11
109.86
21
350.81
31
-103.76
0
LINE
8
CentreLine
10
109.86
20
350.81
30
-103.76
11
121.42
21
348.08
31
-90.91
0
LINE
8
CentreLine
10
121.42
20
348.08
30
-90.91
11
127.95
21
351.15
31
-80.46
0
LINE
8
CentreLine
10
 94.67
20
350.25
30
-129.48
11
 88.82
21
352.44
31
-142.01
0
LINE
8
CentreLine
10
 88.82
20
352.44
30
-142.01
11
 84.29
21
354.40
31
-146.54
0
LINE
8
CentreLine
10
 84.29
20
354.40
30
-146.54
11
 84.29
21
339.00
31
-146.54
0
LINE
8
CentreLine
10
 84.29
20
339.00
30
-146.54
11
 84.59
21
341.27
31
-143.76
0
LINE
8
CentreLine
10
 84.59
20
341.27
30
-143.76
11
 84.59
21
326.97
31
-143.76
0
LINE
8
CentreLine
10
 88.82
20
352.44
30
-142.01
11
 70.01
21
354.48
31
-146.70
0
LINE
8
CentreLine
10
 70.01
20
354.48
30
-146.70
11
 65.65
21
355.97
31
-153.96
0
LINE
8
CentreLine
10
 65.65
20
355.97
30
-153.96
11
 67.48
21
354.72
31
-147.12
0
LINE
8
CentreLine
10
 67.48
20
354.72
30
-147.12
11
 60.19
21
348.94
31
-145.83
0
LINE
8
CentreLine
10
 60.19
20
348.94
30
-145.83
11
 60.19
21
334.44
31
-145.83
0
LINE
8
CentreLine
10
 65.65
20
355.97
30
-153.96
11
 45.42
21
354.06
31
-162.14
0
LINE
8
CentreLine
10
 45.42
20
354.06
30
-162.14
11
 31.86
21
356.38
31
-167.61
0
LINE
8
CentreLine
10
 31.86
20
356.38
30
-167.61
11
 16.97
21
355.28
31
-172.45
0
LINE
8
CentreLine
10
 16.97
20
355.28
30
-172.45
11
 -3.51
21
351.18
31
-177.56
0
LINE
8
CentreLine
10
 -3.51
20
351.18
30
-177.56
11
-10.38
21
352.20
31
-179.79
0
LINE
8
CentreLine
10
-10.38
20
352.20
30
-179.79
11
-10.38
21
339.70
31
-179.79
0
LINE
8
CentreLine
10
-10.38
20
339.70
30
-179.79
11
-17.46
21
337.26
31
-180.29
0
LINE
8
CentreLine
10
-17.46
20
337.26
30
-180.29
11
-23.25
21
331.70
31
-182.40
0
LINE
8
CentreLine
10
-23.25
20
331.70
30
-182.40
11
-23.25
21
307.20
31
-182.40
0
LINE
8
CentreLine
10
-23.25
20
307.20
30
-182.40
11
-23.50
21
310.68
31
-183.30
0
LINE
8
CentreLine
10
-23.50
20
310.68
30
-183.30
11
-17.74
21
310.55
31
-187.79
0
LINE
8
CentreLine
10
 -3.51
20
351.18
30
-177.56
11
-11.06
21
355.64
31
-184.85
0
LINE
8
CentreLine
10
-11.06
20
355.64
30
-184.85
11
-18.74
21
353.04
31
-182.65
0
LINE
8
CentreLine
10
-18.74
20
353.04
30
-182.65
11
-28.90
21
353.58
31
-181.04
0
LINE
8
CentreLine
10
-28.90
20
353.58
30
-181.04
11
-35.05
21
356.87
31
-183.78
0
LINE
8
CentreLine
10
-35.05
20
356.87
30
-183.78
11
-41.15
21
360.37
31
-179.97
0
LINE
8
CentreLine
10
-28.90
20
353.58
30
-181.04
11
-33.35
21
354.84
31
-178.67
0
LINE
8
CentreLine
10
-33.35
20
354.84
30
-178.67
11
-37.74
21
350.22
31
-174.71
0
LINE
8
CentreLine
10
-37.74
20
350.22
30
-174.71
11
-41.06
21
348.33
31
-164.50
0
LINE
8
CentreLine
10
-41.06
20
348.33
30
-164.50
11
-57.26
21
348.62
31
-168.54
0
LINE
8
CentreLine
10
109.86
20
350.81
30
-103.76
11
113.86
21
348.28
31
-95.18
0
LINE
8
CentreLine
10
113.86
20
348.28
30
-95.18
11
114.98
21
348.28
31
-96.84
0
LINE
8
CentreLine
10
114.98
20
348.28
30
-96.84
11
114.98
21
337.38
31
-96.84
0
LINE
8
CentreLine
10
114.98
20
337.38
30
-96.84
11
105.65
21
332.81
31
-91.45
0
LINE
8
CentreLine
10
-23.50
20
310.68
30
-183.30
11
-31.28
21
307.16
31
-186.13
0
LINE
8
CentreLine
10
-31.28
20
307.16
30
-186.13
11
-45.10
21
312.97
31
-179.98
0
LINE
8
CentreLine
10
-45.10
20
312.97
30
-179.98
11
-36.71
21
305.80
31
-185.85
0
LINE
8
CentreLine
10
-36.71
20
305.80
30
-185.85
11
-35.30
21
299.70
31
-185.90
0
LINE
8
CentreLine
10
-35.30
20
299.70
30
-185.90
11
-35.30
21
294.71
31
-185.90
0
LINE
8
CentreLine
10
-35.30
20
294.71
30
-185.90
11
-25.14
21
295.27
31
-189.20
0
LINE
8
CentreLine
10
114.76
20
231.90
30
-103.82
11
114.76
21
223.53
31
-103.82
0
LINE
8
CentreLine
10
 80.58
20
345.33
30
-98.67
11
 82.27
21
335.59
31
-95.34
0
LINE
8
CentreLine
10
 82.27
20
335.59
30
-95.34
11
 82.27
21
305.15
31
-95.34
0
LINE
8
CentreLine
10
 82.27
20
305.15
30
-95.34
11
 82.99
21
305.15
31
-98.00
0
LINE
8
CentreLine
10
 82.99
20
305.15
30
-98.00
11
 84.77
21
305.08
31
-99.12
0
LINE
8
CentreLine
10
 84.77
20
305.08
30
-99.12
11
 84.77
21
294.57
31
-99.12
0
LINE
8
CentreLine
10
 45.42
20
354.06
30
-162.14
11
 36.98
21
356.91
31
-172.55
0
LINE
8
CentreLine
10
 36.98
20
356.91
30
-172.55
11
 39.95
21
361.83
31
-171.76
0
LINE
8
CentreLine
10
 39.95
20
361.83
30
-171.76
11
 39.31
21
362.37
31
-173.27
0
LINE
8
CentreLine
10
 39.31
20
362.37
30
-173.27
11
 47.74
21
365.94
31
-180.34
0
LINE
8
CentreLine
10
 47.74
20
365.94
30
-180.34
11
 53.79
21
368.74
31
-184.43
0
LINE
8
CentreLine
10
 53.79
20
368.74
30
-184.43
11
 55.91
21
370.30
31
-189.43
0
LINE
8
CentreLine
10
 55.91
20
370.30
30
-189.43
11
 58.44
21
371.66
31
-188.56
0
LINE
8
CentreLine
10
 55.91
20
370.30
30
-189.43
11
 54.36
21
369.78
31
-189.87
0
LINE
8
CentreLine
10
 54.36
20
369.78
30
-189.87
11
 57.06
21
369.60
31
-191.76
0
LINE
8
CentreLine
10
 57.06
20
369.60
30
-191.76
11
 61.22
21
369.16
31
-191.40
0
LINE
8
CentreLine
10
 61.22
20
369.16
30
-191.40
11
 59.73
21
368.96
31
-193.88
0
LINE
8
CentreLine
10
 59.73
20
368.96
30
-193.88
11
 58.19
21
368.31
31
-194.80
0
LINE
8
CentreLine
10
 58.19
20
368.31
30
-194.80
11
 60.09
21
369.14
31
-195.31
0
LINE
8
CentreLine
10
 60.09
20
369.14
30
-195.31
11
 57.85
21
368.75
31
-197.55
0
LINE
8
CentreLine
10
 57.85
20
368.75
30
-197.55
11
 56.77
21
369.81
31
-200.08
0
LINE
8
CentreLine
10
 57.85
20
368.75
30
-197.55
11
 60.40
21
367.82
31
-198.43
0
LINE
8
CentreLine
10
 60.40
20
367.82
30
-198.43
11
 64.82
21
364.46
31
-201.52
0
LINE
8
CentreLine
10
 64.82
20
364.46
30
-201.52
11
 64.67
21
362.00
31
-199.80
0
LINE
8
CentreLine
10
 64.67
20
362.00
30
-199.80
11
 64.12
21
358.69
31
-206.00
0
LINE
8
CentreLine
10
 64.67
20
362.00
30
-199.80
11
 66.83
21
359.17
31
-197.98
0
LINE
8
CentreLine
10
-10.38
20
352.20
30
-179.79
11
 -6.82
21
353.72
31
-178.56
0
LINE
8
CentreLine
10
 -6.82
20
353.72
30
-178.56
11
 -7.96
21
353.63
31
-183.50
0
LINE
8
CentreLine
10
 -7.96
20
353.63
30
-183.50
11
 -5.47
21
354.72
31
-187.06
0
LINE
8
CentreLine
10
 -5.47
20
354.72
30
-187.06
11
 -8.17
21
354.78
31
-189.32
0
LINE
8
CentreLine
10
 -8.17
20
354.78
30
-189.32
11
 -6.75
21
357.46
31
-195.48
0
LINE
8
CentreLine
10
 -6.75
20
357.46
30
-195.48
11
 -5.27
21
358.44
31
-198.81
0
LINE
8
CentreLine
10
 -5.27
20
358.44
30
-198.81
11
 -7.68
21
357.78
31
-199.33
0
LINE
8
CentreLine
10
 -7.68
20
357.78
30
-199.33
11
 -8.31
21
355.07
31
-198.97
0
LINE
8
CentreLine
10
 -8.31
20
355.07
30
-198.97
11
 -7.11
21
354.76
31
-197.64
0
LINE
8
CentreLine
10
 -7.68
20
357.78
30
-199.33
11
 -6.64
21
359.20
31
-202.70
0
LINE
8
CentreLine
10
 -6.64
20
359.20
30
-202.70
11
 -3.83
21
361.25
31
-205.32
0
LINE
8
CentreLine
10
 -3.83
20
361.25
30
-205.32
11
 -5.56
21
361.62
31
-207.88
0
LINE
8
CentreLine
10
 -5.56
20
361.62
30
-207.88
11
 -3.63
21
364.70
31
-208.82
0
LINE
8
CentreLine
10
 -5.56
20
361.62
30
-207.88
11
 -7.38
21
361.20
31
-207.79
0
LINE
8
CentreLine
10
 -8.17
20
354.78
30
-189.32
11
 -8.17
21
349.78
31
-189.32
0
LINE
8
CentreLine
10
 -8.31
20
355.07
30
-198.97
11
 -6.79
21
355.07
31
-204.26
0
LINE
8
CentreLine
10
 -6.79
20
355.07
30
-204.26
11
 -6.79
21
350.07
31
-204.26
0
LINE
8
CentreLine
10
 65.65
20
355.97
30
-153.96
11
 65.65
21
352.07
31
-153.96
0
LINE
8
CentreLine
10
 65.65
20
352.07
30
-153.96
11
 69.12
21
354.42
31
-156.68
0
LINE
8
CentreLine
10
 69.12
20
354.42
30
-156.68
11
 73.66
21
355.75
31
-155.71
0
LINE
8
CentreLine
10
 73.66
20
355.75
30
-155.71
11
 73.66
21
315.75
31
-155.71
0
LINE
8
CentreLine
10
-10.38
20
352.20
30
-179.79
11
-10.38
21
353.80
31
-179.79
0
LINE
8
CentreLine
10
-10.38
20
353.80
30
-179.79
11
 -7.98
21
353.80
31
-182.87
0
LINE
8
CentreLine
10
 -7.98
20
353.80
30
-182.87
11
 -5.38
21
354.15
31
-185.96
0
LINE
8
CentreLine
10
 -5.38
20
354.15
30
-185.96
11
 -8.04
21
354.44
31
-187.83
0
LINE
8
CentreLine
10
 -8.04
20
354.44
30
-187.83
11
 -5.97
21
357.01
31
-193.54
0
LINE
8
CentreLine
10
 -5.97
20
357.01
30
-193.54
11
 -5.40
21
357.32
31
-195.00
0
LINE
8
CentreLine
10
 -5.40
20
357.32
30
-195.00
11
 -3.62
21
358.43
31
-197.29
0
LINE
8
CentreLine
10
 -3.62
20
358.43
30
-197.29
11
 -5.90
21
357.77
31
-198.26
0
LINE
8
CentreLine
10
 -5.90
20
357.77
30
-198.26
11
 -7.53
21
356.37
31
-197.50
0
LINE
8
CentreLine
10
 -7.53
20
356.37
30
-197.50
11
 -7.53
21
353.92
31
-197.50
0
LINE
8
CentreLine
10
 -7.53
20
353.92
30
-197.50
11
 -6.69
21
355.46
31
-202.81
0
LINE
8
CentreLine
10
 -6.69
20
355.46
30
-202.81
11
-12.72
21
349.78
31
-205.88
0
LINE
8
CentreLine
10
-12.72
20
349.78
30
-205.88
11
-12.72
21
352.51
31
-205.88
0
LINE
8
CentreLine
10
-12.72
20
352.51
30
-205.88
11
-15.55
21
352.94
31
-206.97
0
LINE
8
CentreLine
10
-15.55
20
352.94
30
-206.97
11
-16.30
21
352.94
31
-209.26
0
LINE
8
CentreLine
10
-16.30
20
352.94
30
-209.26
11
-17.30
21
355.07
31
-210.37
0
LINE
8
CentreLine
10
-17.30
20
355.07
30
-210.37
11
-18.59
21
355.25
31
-211.96
0
LINE
8
CentreLine
10
-18.59
20
355.25
30
-211.96
11
-18.59
21
351.65
31
-211.96
0
LINE
8
CentreLine
10
-18.59
20
351.65
30
-211.96
11
-24.93
21
334.23
31
-211.96
0
LINE
8
CentreLine
10
 65.65
20
355.97
30
-153.96
11
 62.44
21
354.47
31
-153.68
0
LINE
8
CentreLine
10
 62.44
20
354.47
30
-153.68
11
 70.79
21
355.10
31
-156.89
0
LINE
8
CentreLine
10
 70.79
20
355.10
30
-156.89
11
 73.94
21
355.77
31
-156.89
0
LINE
8
CentreLine
10
 73.94
20
355.77
30
-156.89
11
 73.94
21
279.57
31
-156.89
0
LINE
8
CentreLine
10
 73.94
20
279.57
30
-156.89
11
 70.75
21
276.69
31
-155.05
0
LINE
8
CentreLine
10
 70.75
20
276.69
30
-155.05
11
 67.62
21
267.23
31
-152.86
0
LINE
8
CentreLine
10
 67.62
20
267.23
30
-152.86
11
 67.71
21
264.93
31
-153.83
0
LINE
8
CentreLine
10
 67.71
20
264.93
30
-153.83
11
 67.71
21
253.63
31
-153.83
0
LINE
8
CentreLine
10
 67.71
20
253.63
30
-153.83
11
 62.70
21
256.14
31
-164.56
0
LINE
8
CentreLine
10
 62.70
20
256.14
30
-164.56
11
 62.32
21
254.66
31
-168.20
0
LINE
8
CentreLine
10
 62.32
20
254.66
30
-168.20
11
 61.24
21
251.31
31
-172.87
0
LINE
8
CentreLine
10
262.43
20
338.74
30
-20.71
11
260.07
21
341.11
31
-15.64
0
LINE
8
CentreLine
10
260.07
20
341.11
30
-15.64
11
260.07
21
349.26
31
-15.64
0
LINE
8
CentreLine
10
260.07
20
349.26
30
-15.64
11
260.47
21
349.48
31
-15.22
0
LINE
8
CentreLine
10
260.47
20
349.48
30
-15.22
11
258.28
21
354.38
31
 -9.81
0
LINE
8
CentreLine
10
258.28
20
354.38
30
 -9.81
11
263.80
21
358.65
31
 -5.80
0
LINE
8
CentreLine
10
263.80
20
358.65
30
 -5.80
11
261.26
21
377.25
31
-12.07
0
LINE
8
CentreLine
10
261.26
20
377.25
30
-12.07
11
259.04
21
385.38
31
-17.08
0
LINE
8
CentreLine
10
259.04
20
385.38
30
-17.08
11
259.17
21
387.80
31
-18.36
0
LINE
8
CentreLine
10
259.17
20
387.80
30
-18.36
11
257.17
21
392.33
31
-21.44
0
LINE
8
CentreLine
10
257.17
20
392.33
30
-21.44
11
257.04
21
394.00
31
-17.29
0
LINE
8
CentreLine
10
257.04
20
394.00
30
-17.29
11
251.31
21
391.54
31
-18.19
0
LINE
8
CentreLine
10
251.31
20
391.54
30
-18.19
11
251.15
21
392.17
31
-19.94
0
LINE
8
CentreLine
10
251.15
20
392.17
30
-19.94
11
249.07
21
392.69
31
-21.81
0
LINE
8
CentreLine
10
249.07
20
392.69
30
-21.81
11
245.38
21
394.37
31
-22.53
0
LINE
8
CentreLine
10
245.38
20
394.37
30
-22.53
11
243.52
21
394.37
31
-26.52
0
LINE
8
CentreLine
10
243.52
20
394.37
30
-26.52
11
243.52
21
402.08
31
-26.52
0
LINE
8
CentreLine
10
243.52
20
402.08
30
-26.52
11
237.98
21
404.36
31
-27.70
0
LINE
8
CentreLine
10
237.98
20
404.36
30
-27.70
11
237.76
21
404.42
31
-29.29
0
LINE
8
CentreLine
10
237.76
20
404.42
30
-29.29
11
236.76
21
404.83
31
-29.94
0
LINE
8
CentreLine
10
236.76
20
404.83
30
-29.94
11
235.93
21
408.17
31
-33.30
0
LINE
8
CentreLine
10
235.93
20
408.17
30
-33.30
11
229.86
21
407.85
31
-32.98
0
LINE
8
CentreLine
10
229.86
20
407.85
30
-32.98
11
228.37
21
408.75
31
-37.33
0
LINE
8
CentreLine
10
228.37
20
408.75
30
-37.33
11
229.21
21
415.65
31
-38.98
0
LINE
8
CentreLine
10
229.21
20
415.65
30
-38.98
11
229.21
21
420.11
31
-38.98
0
LINE
8
CentreLine
10
229.21
20
420.11
30
-38.98
11
226.19
21
421.54
31
-40.45
0
LINE
8
CentreLine
10
226.19
20
421.54
30
-40.45
11
229.72
21
419.82
31
-30.20
0
LINE
8
CentreLine
10
229.72
20
419.82
30
-30.20
11
229.72
21
436.03
31
-30.20
0
LINE
8
CentreLine
10
229.72
20
436.03
30
-30.20
11
230.40
21
435.83
31
-29.32
0
LINE
8
CentreLine
10
230.40
20
435.83
30
-29.32
11
230.40
21
445.53
31
-29.32
0
LINE
8
CentreLine
10
230.40
20
445.53
30
-29.32
11
235.32
21
449.34
31
-33.31
0
LINE
8
CentreLine
10
235.32
20
449.34
30
-33.31
11
235.32
21
457.74
31
-33.31
0
LINE
8
CentreLine
10
235.32
20
457.74
30
-33.31
11
235.93
21
458.21
31
-32.44
0
LINE
8
CentreLine
10
235.93
20
458.21
30
-32.44
11
238.22
21
461.15
31
-32.68
0
LINE
8
CentreLine
10
238.22
20
461.15
30
-32.68
11
236.98
21
464.40
31
-32.23
0
LINE
8
CentreLine
10
236.98
20
464.40
30
-32.23
11
236.06
21
464.48
31
-33.09
0
LINE
8
CentreLine
10
236.06
20
464.48
30
-33.09
11
236.06
21
471.37
31
-33.09
0
LINE
8
CentreLine
10
236.06
20
471.37
30
-33.09
11
234.84
21
469.07
31
-29.90
0
LINE
8
CentreLine
10
234.84
20
469.07
30
-29.90
11
227.49
21
469.85
31
-34.86
0
LINE
8
CentreLine
10
227.49
20
469.85
30
-34.86
11
226.80
21
470.46
31
-32.30
0
LINE
8
CentreLine
10
226.80
20
470.46
30
-32.30
11
226.80
21
471.55
31
-32.30
0
LINE
8
CentreLine
10
226.80
20
471.55
30
-32.30
11
225.52
21
471.27
31
-32.55
0
LINE
8
CentreLine
10
225.52
20
471.27
30
-32.55
11
225.52
21
472.99
31
-32.55
0
LINE
8
CentreLine
10
225.52
20
472.99
30
-32.55
11
223.41
21
475.67
31
-29.18
0
LINE
8
CentreLine
10
251.31
20
391.54
30
-18.19
11
251.31
21
387.54
31
-18.19
0
LINE
8
CentreLine
10
259.04
20
385.38
30
-17.08
11
259.92
21
384.37
31
-16.34
0
LINE
8
CentreLine
10
263.80
20
358.65
30
 -5.80
11
257.09
21
358.76
31
 -5.56
0
LINE
8
CentreLine
10
257.09
20
358.76
30
 -5.56
11
257.09
21
354.76
31
 -5.56
0
LINE
8
CentreLine
10
280.28
20
351.17
30
 -4.45
11
283.10
21
350.89
31
 -8.97
0
LINE
8
CentreLine
10
275.86
20
354.59
30
-21.54
11
282.83
21
350.74
31
 -8.95
0
LINE
8
CentreLine
10
282.83
20
350.74
30
 -8.95
11
285.10
21
349.90
31
 -7.74
0
LINE
8
CentreLine
10
285.10
20
349.90
30
 -7.74
11
291.28
21
351.05
31
 -5.74
0
LINE
8
CentreLine
10
291.28
20
351.05
30
 -5.74
11
295.95
21
350.59
31
 -1.22
0
LINE
8
CentreLine
10
295.95
20
350.59
30
 -1.22
11
296.59
21
343.58
31
  4.84
0
LINE
8
CentreLine
10
296.59
20
343.58
30
  4.84
11
298.20
21
341.18
31
  4.02
0
LINE
8
CentreLine
10
298.20
20
341.18
30
  4.02
11
298.20
21
331.18
31
  4.02
0
LINE
8
CentreLine
10
275.86
20
354.59
30
-21.54
11
277.28
21
348.64
31
 -5.25
0
LINE
8
CentreLine
10
277.28
20
348.64
30
 -5.25
11
277.28
21
328.44
31
 -5.25
0
LINE
8
CentreLine
10
277.28
20
328.44
30
 -5.25
11
281.88
21
325.05
31
 -2.37
0
LINE
8
CentreLine
10
281.88
20
325.05
30
 -2.37
11
281.88
21
298.65
31
 -2.37
0
LINE
8
CentreLine
10
281.88
20
298.65
30
 -2.37
11
277.21
21
298.86
31
  1.55
0
LINE
8
CentreLine
10
298.20
20
341.18
30
  4.02
11
305.24
21
341.66
31
  9.93
0
LINE
8
CentreLine
10
305.24
20
341.66
30
  9.93
11
306.45
21
343.95
31
 10.69
0
LINE
8
CentreLine
10
306.45
20
343.95
30
 10.69
11
309.43
21
345.19
31
 11.38
0
LINE
8
CentreLine
10
309.43
20
345.19
30
 11.38
11
311.47
21
345.05
31
 13.14
0
LINE
8
CentreLine
10
311.47
20
345.05
30
 13.14
11
313.71
21
345.86
31
 14.60
0
LINE
8
CentreLine
10
313.71
20
345.86
30
 14.60
11
316.19
21
346.88
31
 14.95
0
LINE
8
CentreLine
10
316.19
20
346.88
30
 14.95
11
317.71
21
346.85
31
 14.66
0
LINE
8
CentreLine
10
317.71
20
346.85
30
 14.66
11
319.78
21
347.13
31
  6.94
0
LINE
8
CentreLine
10
319.78
20
347.13
30
  6.94
11
318.19
21
348.02
31
  8.02
0
LINE
8
CentreLine
10
318.19
20
348.02
30
  8.02
11
318.19
21
333.79
31
  8.02
0
LINE
8
CentreLine
10
318.19
20
333.79
30
  8.02
11
316.60
21
334.10
31
 11.12
0
LINE
8
CentreLine
10
316.60
20
334.10
30
 11.12
11
314.72
21
332.00
31
 13.45
0
LINE
8
CentreLine
10
314.72
20
332.00
30
 13.45
11
310.34
21
325.65
31
 12.67
0
LINE
8
CentreLine
10
310.34
20
325.65
30
 12.67
11
310.34
21
311.18
31
 12.67
0
LINE
8
CentreLine
10
310.34
20
311.18
30
 12.67
11
309.61
21
310.68
31
 14.69
0
LINE
8
CentreLine
10
309.61
20
310.68
30
 14.69
11
309.61
21
307.01
31
 14.69
0
LINE
8
CentreLine
10
309.61
20
307.01
30
 14.69
11
308.76
21
306.76
31
 17.45
0
LINE
8
CentreLine
10
310.34
20
325.65
30
 12.67
11
306.36
21
321.79
31
 14.97
0
LINE
8
CentreLine
10
318.19
20
333.79
30
  8.02
11
322.82
21
338.38
31
 12.65
0
LINE
8
CentreLine
10
275.86
20
354.59
30
-21.54
11
267.16
21
358.97
31
-40.18
0
LINE
8
CentreLine
10
267.16
20
358.97
30
-40.18
11
259.37
21
364.50
31
-54.23
0
LINE
8
CentreLine
10
259.37
20
364.50
30
-54.23
11
261.64
21
364.69
31
-64.90
0
LINE
8
CentreLine
10
261.64
20
364.69
30
-64.90
11
260.85
21
367.88
31
-69.39
0
LINE
8
CentreLine
10
260.85
20
367.88
30
-69.39
11
254.96
21
370.31
31
-80.46
0
LINE
8
CentreLine
10
254.96
20
370.31
30
-80.46
11
257.04
21
371.59
31
-84.07
0
LINE
8
CentreLine
10
257.04
20
371.59
30
-84.07
11
259.76
21
379.64
31
-91.96
0
LINE
8
CentreLine
10
259.76
20
379.64
30
-91.96
11
262.39
21
381.78
31
-94.98
0
LINE
8
CentreLine
10
262.39
20
381.78
30
-94.98
11
262.39
21
386.68
31
-94.98
0
LINE
8
CentreLine
10
257.04
20
371.59
30
-84.07
11
265.28
21
374.87
31
-76.11
0
LINE
8
CentreLine
10
265.28
20
374.87
30
-76.11
11
276.94
21
371.77
31
-65.24
0
LINE
8
CentreLine
10
276.94
20
371.77
30
-65.24
11
279.18
21
371.77
31
-59.39
0
LINE
8
CentreLine
10
279.18
20
371.77
30
-59.39
11
278.38
21
375.37
31
-54.31
0
LINE
8
CentreLine
10
279.18
20
371.77
30
-59.39
11
286.05
21
370.39
31
-55.58
0
LINE
8
CentreLine
10
279.18
20
371.77
30
-59.39
11
272.64
21
370.18
31
-63.01
0
LINE
8
CentreLine
10
261.64
20
364.69
30
-64.90
11
265.41
21
373.60
31
-71.99
0
LINE
8
CentreLine
10
263.80
20
358.65
30
 -5.80
11
258.21
21
358.45
31
 -5.70
0
LINE
8
CentreLine
10
258.21
20
358.45
30
 -5.70
11
255.11
21
356.53
31
 -1.44
0
LINE
8
CentreLine
10
255.11
20
356.53
30
 -1.44
11
255.11
21
346.72
31
 -1.44
0
LINE
8
CentreLine
10
255.11
20
346.72
30
 -1.44
11
250.79
21
347.68
31
  2.74
0
LINE
8
CentreLine
10
250.79
20
347.68
30
  2.74
11
249.18
21
346.62
31
  4.79
0
LINE
8
CentreLine
10
249.18
20
346.62
30
  4.79
11
251.46
21
336.85
31
  8.74
0
LINE
8
CentreLine
10
251.46
20
336.85
30
  8.74
11
250.49
21
332.36
31
 14.21
0
LINE
8
CentreLine
10
250.49
20
332.36
30
 14.21
11
242.78
21
337.02
31
 16.57
0
LINE
8
CentreLine
10
242.78
20
337.02
30
 16.57
11
241.29
21
337.13
31
 17.26
0
LINE
8
CentreLine
10
241.29
20
337.13
30
 17.26
11
240.37
21
337.62
31
 17.95
0
LINE
8
CentreLine
10
240.37
20
337.62
30
 17.95
11
244.58
21
338.11
31
 20.10
0
LINE
8
CentreLine
10
244.58
20
338.11
30
 20.10
11
247.01
21
342.52
31
 18.81
0
LINE
8
CentreLine
10
247.01
20
342.52
30
 18.81
11
250.81
21
343.62
31
 19.54
0
LINE
8
CentreLine
10
250.81
20
343.62
30
 19.54
11
254.07
21
345.49
31
 17.88
0
LINE
8
CentreLine
10
254.07
20
345.49
30
 17.88
11
255.51
21
346.81
31
 18.13
0
LINE
8
CentreLine
10
255.51
20
346.81
30
 18.13
11
257.09
21
346.44
31
 18.80
0
LINE
8
CentreLine
10
257.09
20
346.44
30
 18.80
11
258.01
21
345.83
31
 19.03
0
LINE
8
CentreLine
10
258.01
20
345.83
30
 19.03
11
259.11
21
344.69
31
 18.42
0
LINE
8
CentreLine
10
259.11
20
344.69
30
 18.42
11
262.28
21
345.24
31
 20.73
0
LINE
8
CentreLine
10
262.28
20
345.24
30
 20.73
11
261.25
21
349.54
31
 23.92
0
LINE
8
CentreLine
10
261.25
20
349.54
30
 23.92
11
259.72
21
347.82
31
 25.61
0
LINE
8
CentreLine
10
259.72
20
347.82
30
 25.61
11
258.84
21
347.52
31
 25.91
0
LINE
8
CentreLine
10
258.84
20
347.52
30
 25.91
11
260.59
21
348.13
31
 29.33
0
LINE
8
CentreLine
10
260.59
20
348.13
30
 29.33
11
258.36
21
347.29
31
 29.97
0
LINE
8
CentreLine
10
258.36
20
347.29
30
 29.97
11
260.95
21
347.22
31
 32.84
0
LINE
8
CentreLine
10
260.95
20
347.22
30
 32.84
11
258.86
21
346.34
31
 38.00
0
LINE
8
CentreLine
10
258.86
20
346.34
30
 38.00
11
258.92
21
344.02
31
 41.18
0
LINE
8
CentreLine
10
258.92
20
344.02
30
 41.18
11
258.92
21
340.17
31
 41.18
0
LINE
8
CentreLine
10
258.92
20
340.17
30
 41.18
11
256.22
21
338.47
31
 42.38
0
LINE
8
CentreLine
10
256.22
20
338.47
30
 42.38
11
256.22
21
333.87
31
 42.38
0
LINE
8
CentreLine
10
256.22
20
333.87
30
 42.38
11
254.05
21
333.45
31
 42.35
0
LINE
8
CentreLine
10
254.05
20
333.45
30
 42.35
11
254.05
21
329.79
31
 42.35
0
LINE
8
CentreLine
10
254.05
20
329.79
30
 42.35
11
252.47
21
328.72
31
 43.87
0
LINE
8
CentreLine
10
252.47
20
328.72
30
 43.87
11
252.47
21
324.05
31
 43.87
0
LINE
8
CentreLine
10
252.47
20
324.05
30
 43.87
11
250.95
21
323.31
31
 44.71
0
LINE
8
CentreLine
10
270.92
20
330.88
30
-25.84
11
262.76
21
326.18
31
-33.73
0
LINE
8
CentreLine
10
281.28
20
157.55
30
111.74
11
270.08
21
171.58
31
120.18
0
LINE
8
CentreLine
10
308.39
20
111.21
30
 41.07
11
297.10
21
104.07
31
 36.04
0
LINE
8
CentreLine
10
270.92
20
330.88
30
-25.84
11
268.00
21
327.07
31
-34.33
0
LINE
8
CentreLine
10
268.00
20
327.07
30
-34.33
11
265.92
21
327.73
31
-37.93
0
LINE
8
CentreLine
10
265.92
20
327.73
30
-37.93
11
269.42
21
325.52
31
-37.38
0
LINE
8
CentreLine
10
269.42
20
325.52
30
-37.38
11
269.42
21
323.91
31
-37.38
0
LINE
8
CentreLine
10
269.42
20
323.91
30
-37.38
11
270.37
21
322.58
31
-35.81
0
LINE
8
CentreLine
10
270.37
20
322.58
30
-35.81
11
271.87
21
321.12
31
-35.70
0
LINE
8
CentreLine
10
271.87
20
321.12
30
-35.70
11
272.85
21
320.99
31
-34.92
0
LINE
8
CentreLine
10
272.85
20
320.99
30
-34.92
11
271.01
21
321.10
31
-32.38
0
LINE
8
CentreLine
10
271.01
20
321.10
30
-32.38
11
268.04
21
321.61
31
-31.12
0
LINE
8
CentreLine
10
268.04
20
321.61
30
-31.12
11
269.36
21
318.93
31
-29.60
0
LINE
8
CentreLine
10
269.36
20
318.93
30
-29.60
11
270.35
21
313.60
31
-30.15
0
LINE
8
CentreLine
10
270.35
20
313.60
30
-30.15
11
275.88
21
313.71
31
-27.69
0
LINE
8
CentreLine
10
275.88
20
313.71
30
-27.69
11
276.71
21
312.33
31
-25.82
0
LINE
8
CentreLine
10
276.71
20
312.33
30
-25.82
11
280.43
21
311.31
31
-22.80
0
LINE
8
CentreLine
10
280.43
20
311.31
30
-22.80
11
284.37
21
311.52
31
-21.82
0
LINE
8
CentreLine
10
284.37
20
311.52
30
-21.82
11
286.56
21
311.87
31
-22.13
0
LINE
8
CentreLine
10
286.56
20
311.87
30
-22.13
11
290.13
21
310.28
31
-20.46
0
LINE
8
CentreLine
10
290.13
20
310.28
30
-20.46
11
292.25
21
310.36
31
-21.74
0
LINE
8
CentreLine
10
292.25
20
310.36
30
-21.74
11
295.68
21
310.97
31
-20.07
0
LINE
8
CentreLine
10
295.68
20
310.97
30
-20.07
11
297.60
21
309.44
31
-22.06
0
LINE
8
CentreLine
10
297.60
20
309.44
30
-22.06
11
297.60
21
314.55
31
-22.06
0
LINE
8
CentreLine
10
297.60
20
314.55
30
-22.06
11
301.88
21
313.74
31
-23.70
0
LINE
8
CentreLine
10
301.88
20
313.74
30
-23.70
11
307.93
21
308.57
31
-18.06
0
LINE
8
CentreLine
10
307.93
20
308.57
30
-18.06
11
312.14
21
311.21
31
-14.65
0
LINE
8
CentreLine
10
312.14
20
311.21
30
-14.65
11
315.45
21
312.69
31
-13.58
0
LINE
8
CentreLine
10
315.45
20
312.69
30
-13.58
11
315.76
21
313.24
31
-15.16
0
LINE
8
CentreLine
10
315.76
20
313.24
30
-15.16
11
315.76
21
312.00
31
-15.16
0
LINE
8
CentreLine
10
315.76
20
312.00
30
-15.16
11
321.79
21
314.81
31
-15.26
0
LINE
8
CentreLine
10
321.79
20
314.81
30
-15.26
11
320.66
21
315.91
31
-15.10
0
LINE
8
CentreLine
10
320.66
20
315.91
30
-15.10
11
324.38
21
315.59
31
-14.91
0
LINE
8
CentreLine
10
324.38
20
315.59
30
-14.91
11
324.38
21
319.89
31
-14.91
0
LINE
8
CentreLine
10
324.38
20
319.89
30
-14.91
11
318.73
21
325.87
31
-16.11
0
LINE
8
CentreLine
10
318.73
20
325.87
30
-16.11
11
316.23
21
327.53
31
-24.29
0
LINE
8
CentreLine
10
316.23
20
327.53
30
-24.29
11
311.73
21
324.96
31
-28.78
0
LINE
8
CentreLine
10
311.73
20
324.96
30
-28.78
11
311.86
21
323.49
31
-36.34
0
LINE
8
CentreLine
10
311.86
20
323.49
30
-36.34
11
310.52
21
319.84
31
-44.83
0
LINE
8
CentreLine
10
310.52
20
319.84
30
-44.83
11
310.52
21
327.84
31
-44.83
0
LINE
8
CentreLine
10
281.28
20
157.55
30
111.74
11
273.69
21
171.37
31
123.88
0
LINE
8
CentreLine
10
273.69
20
171.37
30
123.88
11
275.24
21
176.84
31
133.62
0
LINE
8
CentreLine
10
275.24
20
176.84
30
133.62
11
263.67
21
187.75
31
149.54
0
LINE
8
CentreLine
10
263.67
20
187.75
30
149.54
11
261.58
21
188.78
31
150.30
0
LINE
8
CentreLine
10
261.58
20
188.78
30
150.30
11
273.63
21
197.97
31
152.20
0
LINE
8
CentreLine
10
270.35
20
313.60
30
-30.15
11
268.58
21
313.46
31
-29.32
0
LINE
8
CentreLine
10
268.58
20
313.46
30
-29.32
11
272.44
21
310.65
31
-28.22
0
LINE
8
CentreLine
10
272.44
20
310.65
30
-28.22
11
273.25
21
310.50
31
-25.56
0
LINE
8
CentreLine
10
273.25
20
310.50
30
-25.56
11
281.89
21
310.16
31
-20.77
0
LINE
8
CentreLine
10
281.89
20
310.16
30
-20.77
11
284.76
21
310.21
31
-21.49
0
LINE
8
CentreLine
10
284.76
20
310.21
30
-21.49
11
289.83
21
310.02
31
-19.23
0
LINE
8
CentreLine
10
289.83
20
310.02
30
-19.23
11
291.81
21
310.56
31
-20.83
0
LINE
8
CentreLine
10
291.81
20
310.56
30
-20.83
11
293.59
21
310.86
31
-20.08
0
LINE
8
CentreLine
10
293.59
20
310.86
30
-20.08
11
297.12
21
309.52
31
-21.16
0
LINE
8
CentreLine
10
297.12
20
309.52
30
-21.16
11
299.82
21
307.70
31
-19.78
0
LINE
8
CentreLine
10
299.82
20
307.70
30
-19.78
11
302.03
21
304.31
31
-15.26
0
LINE
8
CentreLine
10
302.03
20
304.31
30
-15.26
11
302.21
21
302.38
31
-17.32
0
LINE
8
CentreLine
10
302.21
20
302.38
30
-17.32
11
299.95
21
302.38
31
-19.35
0
LINE
8
CentreLine
10
299.95
20
302.38
30
-19.35
11
298.67
21
301.13
31
-19.53
0
LINE
8
CentreLine
10
298.67
20
301.13
30
-19.53
11
296.81
21
300.45
31
-20.21
0
LINE
8
CentreLine
10
296.81
20
300.45
30
-20.21
11
293.44
21
299.24
31
-18.63
0
LINE
8
CentreLine
10
293.44
20
299.24
30
-18.63
11
292.25
21
299.37
31
-20.68
0
LINE
8
CentreLine
10
292.25
20
299.37
30
-20.68
11
289.62
21
297.00
31
-17.96
0
LINE
8
CentreLine
10
289.62
20
297.00
30
-17.96
11
283.83
21
293.91
31
-18.26
0
LINE
8
CentreLine
10
283.83
20
293.91
30
-18.26
11
278.68
21
287.18
31
 -2.41
0
LINE
8
CentreLine
10
278.68
20
287.18
30
 -2.41
11
276.14
21
279.91
31
  4.96
0
LINE
8
CentreLine
10
276.14
20
279.91
30
  4.96
11
271.67
21
273.61
31
 10.67
0
LINE
8
CentreLine
10
271.96
20
213.70
30
 14.84
11
272.49
21
222.74
31
 24.85
0
LINE
8
CentreLine
10
272.49
20
222.74
30
 24.85
11
265.03
21
235.11
31
 33.13
0
LINE
8
CentreLine
10
265.03
20
235.11
30
 33.13
11
261.87
21
239.22
31
 41.37
0
LINE
8
CentreLine
10
261.87
20
239.22
30
 41.37
11
260.68
21
236.45
31
 42.00
0
LINE
8
CentreLine
10
260.68
20
236.45
30
 42.00
11
257.63
21
231.90
31
 43.56
0
LINE
8
CentreLine
10
257.63
20
231.90
30
 43.56
11
257.42
21
230.76
31
 47.52
0
LINE
8
CentreLine
10
257.42
20
230.76
30
 47.52
11
256.52
21
232.28
31
 50.00
0
LINE
8
CentreLine
10
256.52
20
232.28
30
 50.00
11
253.61
21
232.05
31
 53.22
0
LINE
8
CentreLine
10
253.61
20
232.05
30
 53.22
11
254.44
21
230.28
31
 54.72
0
LINE
8
CentreLine
10
254.44
20
230.28
30
 54.72
11
252.52
21
228.69
31
 55.16
0
LINE
8
CentreLine
10
252.52
20
228.69
30
 55.16
11
252.52
21
227.43
31
 55.16
0
LINE
8
CentreLine
10
252.52
20
227.43
30
 55.16
11
251.77
21
227.76
31
 54.74
0
LINE
8
CentreLine
10
251.77
20
227.76
30
 54.74
11
246.31
21
219.91
31
 57.53
0
LINE
8
CentreLine
10
246.31
20
219.91
30
 57.53
11
242.00
21
215.91
31
 55.88
0
LINE
8
CentreLine
10
242.00
20
215.91
30
 55.88
11
242.00
21
205.63
31
 55.88
0
LINE
8
CentreLine
10
242.00
20
205.63
30
 55.88
11
247.32
21
203.71
31
 52.55
0
LINE
8
CentreLine
10
247.32
20
203.71
30
 52.55
11
246.04
21
202.11
31
 52.62
0
LINE
8
CentreLine
10
246.04
20
202.11
30
 52.62
11
246.04
21
180.27
31
 52.62
0
LINE
8
CentreLine
10
246.04
20
180.27
30
 52.62
11
246.04
21
163.84
31
 52.62
0
LINE
8
CentreLine
10
246.04
20
163.84
30
 52.62
11
239.61
21
164.91
31
 58.40
0
LINE
8
CentreLine
10
239.61
20
164.91
30
 58.40
11
240.88
21
162.22
31
 61.88
0
LINE
8
CentreLine
10
240.88
20
162.22
30
 61.88
11
241.26
21
156.91
31
 62.94
0
LINE
8
CentreLine
10
241.26
20
156.91
30
 62.94
11
241.26
21
131.28
31
 62.94
0
LINE
8
CentreLine
10
241.26
20
131.28
30
 62.94
11
241.26
21
117.15
31
 62.94
0
LINE
8
CentreLine
10
241.26
20
117.15
30
 62.94
11
239.02
21
119.27
31
 66.68
0
LINE
8
CentreLine
10
239.02
20
119.27
30
 66.68
11
237.73
21
117.77
31
 69.19
0
LINE
8
CentreLine
10
237.73
20
117.77
30
 69.19
11
237.73
21
111.99
31
 69.19
0
LINE
8
CentreLine
10
237.73
20
111.99
30
 69.19
11
233.63
21
111.20
31
 73.02
0
LINE
8
CentreLine
10
233.63
20
111.20
30
 73.02
11
233.78
21
110.94
31
 76.01
0
LINE
8
CentreLine
10
233.78
20
110.94
30
 76.01
11
231.81
21
109.40
31
 76.04
0
LINE
8
CentreLine
10
231.81
20
109.40
30
 76.04
11
230.25
21
107.60
31
 78.75
0
LINE
8
CentreLine
10
230.25
20
107.60
30
 78.75
11
227.01
21
 97.69
31
 82.90
0
LINE
8
CentreLine
10
227.01
20
 97.69
30
 82.90
11
224.94
21
 92.87
31
 84.76
0
LINE
8
CentreLine
10
224.94
20
 92.87
30
 84.76
11
223.96
21
 80.74
31
 86.16
0
LINE
8
CentreLine
10
223.96
20
 80.74
30
 86.16
11
219.86
21
 49.69
31
 87.65
0
LINE
8
CentreLine
10
219.86
20
 49.69
30
 87.65
11
224.68
21
 62.10
31
101.64
0
LINE
8
CentreLine
10
251.77
20
227.76
30
 54.74
11
246.73
21
221.39
31
 57.89
0
LINE
8
CentreLine
10
246.73
20
221.39
30
 57.89
11
245.17
21
216.45
31
 60.84
0
LINE
8
CentreLine
10
245.17
20
216.45
30
 60.84
11
243.19
21
212.05
31
 67.32
0
LINE
8
CentreLine
10
251.77
20
227.76
30
 54.74
11
248.29
21
229.89
31
 60.31
0
LINE
8
CentreLine
10
248.29
20
229.89
30
 60.31
11
244.72
21
225.10
31
 66.77
0
LINE
8
CentreLine
10
244.72
20
225.10
30
 66.77
11
242.18
21
223.27
31
 68.00
0
LINE
8
CentreLine
10
265.03
20
235.11
30
 33.13
11
276.63
21
235.11
31
 36.24
0
LINE
8
CentreLine
10
169.74
20
314.24
30
  3.32
11
175.40
21
311.31
31
  7.28
0
LINE
8
CentreLine
10
175.40
20
311.31
30
  7.28
11
176.73
21
311.31
31
  8.21
0
LINE
8
CentreLine
10
176.73
20
311.31
30
  8.21
11
185.98
21
281.82
31
 10.69
0
LINE
8
CentreLine
10
185.98
20
281.82
30
 10.69
11
190.24
21
253.19
31
  9.14
0
LINE
8
CentreLine
10
190.24
20
253.19
30
  9.14
11
193.87
21
248.67
31
  0.14
0
LINE
8
CentreLine
10
193.87
20
248.67
30
  0.14
11
193.87
21
276.36
31
  0.14
0
LINE
8
CentreLine
10
193.87
20
276.36
30
  0.14
11
195.00
21
279.96
31
 -1.81
0
LINE
8
CentreLine
10
195.00
20
279.96
30
 -1.81
11
202.43
21
297.15
31
-14.17
0
LINE
8
CentreLine
10
202.43
20
297.15
30
-14.17
11
203.58
21
297.50
31
-13.02
0
LINE
8
CentreLine
10
 14.38
20
255.86
30
-133.11
11
 19.45
21
251.03
31
-153.44
0
LINE
8
CentreLine
10
 19.45
20
251.03
30
-153.44
11
 23.17
21
247.88
31
-157.43
0
LINE
8
CentreLine
10
 23.17
20
247.88
30
-157.43
11
 23.17
21
246.07
31
-157.43
0
LINE
8
CentreLine
10
 23.17
20
246.07
30
-157.43
11
 20.94
21
245.94
31
-158.11
0
LINE
8
CentreLine
10
 20.94
20
245.94
30
-158.11
11
 19.40
21
242.50
31
-157.64
0
LINE
8
CentreLine
10
 19.40
20
242.50
30
-157.64
11
 19.56
21
245.48
31
-153.23
0
LINE
8
CentreLine
10
 19.56
20
245.48
30
-153.23
11
 16.43
21
239.65
31
-149.23
0
LINE
8
CentreLine
10
 16.43
20
239.65
30
-149.23
11
 14.18
21
237.23
31
-149.35
0
LINE
8
CentreLine
10
 14.18
20
237.23
30
-149.35
11
 12.92
21
233.46
31
-147.47
0
LINE
8
CentreLine
10
-97.74
20
210.34
30
-117.71
11
-104.63
21
207.04
31
-107.50
0
LINE
8
CentreLine
10
-104.63
20
207.04
30
-107.50
11
-126.01
21
194.67
31
-106.01
0
LINE
8
CentreLine
10
-97.74
20
210.34
30
-117.71
11
-75.68
21
200.49
31
-115.78
0
LINE
8
CentreLine
10
-75.68
20
200.49
30
-115.78
11
-75.68
21
198.39
31
-115.78
0
LINE
8
CentreLine
10
-75.68
20
198.39
30
-115.78
11
-76.62
21
190.07
31
-109.11
0
LINE
8
CentreLine
10
190.24
20
253.19
30
  9.14
11
195.90
21
240.40
31
 23.88
0
LINE
8
CentreLine
10
195.90
20
240.40
30
 23.88
11
186.57
21
239.66
31
 22.23
0
LINE
8
CentreLine
10
186.57
20
239.66
30
 22.23
11
183.51
21
236.81
31
 23.56
0
LINE
8
CentreLine
10
183.51
20
236.81
30
 23.56
11
185.08
21
235.42
31
 21.48
0
LINE
8
CentreLine
10
185.08
20
235.42
30
 21.48
11
186.51
21
233.58
31
 21.63
0
LINE
8
CentreLine
10
186.51
20
233.58
30
 21.63
11
186.94
21
232.65
31
 24.86
0
LINE
8
CentreLine
10
186.94
20
232.65
30
 24.86
11
186.94
21
228.44
31
 24.86
0
LINE
8
CentreLine
10
186.94
20
228.44
30
 24.86
11
189.42
21
228.61
31
 25.03
0
LINE
8
CentreLine
10
189.42
20
228.61
30
 25.03
11
190.45
21
227.95
31
 25.08
0
LINE
8
CentreLine
10
190.45
20
227.95
30
 25.08
11
190.45
21
222.93
31
 25.08
0
LINE
8
CentreLine
10
190.45
20
222.93
30
 25.08
11
183.49
21
220.16
31
 26.95
0
LINE
8
CentreLine
10
183.49
20
220.16
30
 26.95
11
188.14
21
217.24
31
 22.30
0
LINE
8
CentreLine
10
188.14
20
217.24
30
 22.30
11
188.48
21
212.52
31
 18.36
0
LINE
8
CentreLine
10
188.48
20
212.52
30
 18.36
11
192.05
21
209.34
31
 19.65
0
LINE
8
CentreLine
10
192.05
20
209.34
30
 19.65
11
190.49
21
204.95
31
 22.99
0
LINE
8
CentreLine
10
190.49
20
204.95
30
 22.99
11
192.03
21
199.57
31
 27.23
0
LINE
8
CentreLine
10
192.03
20
199.57
30
 27.23
11
190.50
21
192.98
31
 29.89
0
LINE
8
CentreLine
10
190.50
20
192.98
30
 29.89
11
192.36
21
186.73
31
 31.96
0
LINE
8
CentreLine
10
192.36
20
186.73
30
 31.96
11
194.82
21
181.39
31
 35.90
0
LINE
8
CentreLine
10
194.82
20
181.39
30
 35.90
11
191.42
21
174.83
31
 38.19
0
LINE
8
CentreLine
10
191.42
20
174.83
30
 38.19
11
190.85
21
173.37
31
 39.78
0
LINE
8
CentreLine
10
190.85
20
173.37
30
 39.78
11
191.89
21
171.14
31
 41.83
0
LINE
8
CentreLine
10
191.89
20
171.14
30
 41.83
11
187.13
21
168.98
31
 42.76
0
LINE
8
CentreLine
10
187.13
20
168.98
30
 42.76
11
186.17
21
167.28
31
 44.63
0
LINE
8
CentreLine
10
186.17
20
167.28
30
 44.63
11
188.62
21
164.93
31
 46.76
0
LINE
8
CentreLine
10
188.62
20
164.93
30
 46.76
11
191.05
21
164.02
31
 50.23
0
LINE
8
CentreLine
10
 36.04
20
277.81
30
-116.09
11
 36.73
21
277.46
31
-120.04
0
LINE
8
CentreLine
10
 36.73
20
277.46
30
-120.04
11
 35.55
21
270.78
31
-121.03
0
LINE
8
CentreLine
10
 35.55
20
270.78
30
-121.03
11
 34.10
21
264.34
31
-117.61
0
LINE
8
CentreLine
10
 34.10
20
264.34
30
-117.61
11
 36.98
21
262.88
31
-114.18
0
LINE
8
CentreLine
10
 36.98
20
262.88
30
-114.18
11
 36.98
21
250.38
31
-114.18
0
LINE
8
CentreLine
10
 34.10
20
264.34
30
-117.61
11
 27.77
21
255.73
31
-128.14
0
LINE
8
CentreLine
10
 84.28
20
301.93
30
-55.48
11
 86.43
21
299.82
31
-62.51
0
LINE
8
CentreLine
10
 86.43
20
299.82
30
-62.51
11
 88.74
21
298.86
31
-64.66
0
LINE
8
CentreLine
10
 88.74
20
298.86
30
-64.66
11
 88.74
21
270.71
31
-64.66
0
LINE
8
CentreLine
10
 88.74
20
270.71
30
-64.66
11
 84.88
21
267.49
31
-61.86
0
LINE
8
CentreLine
10
 84.88
20
267.49
30
-61.86
11
 82.31
21
266.25
31
-62.60
0
LINE
8
CentreLine
10
-97.77
20
198.30
30
-138.60
11
-92.49
21
198.96
31
-139.82
0
LINE
8
CentreLine
10
-92.49
20
198.96
30
-139.82
11
-90.56
21
198.21
31
-140.19
0
LINE
8
CentreLine
10
-90.56
20
198.21
30
-140.19
11
-89.76
21
201.24
31
-140.77
0
LINE
8
CentreLine
10
-89.76
20
201.24
30
-140.77
11
-90.25
21
201.36
31
-142.46
0
LINE
8
CentreLine
10
-90.25
20
201.36
30
-142.46
11
-85.00
21
199.57
31
-147.36
0
LINE
8
CentreLine
10
-85.00
20
199.57
30
-147.36
11
-80.02
21
200.43
31
-143.87
0
LINE
8
CentreLine
10
-85.00
20
199.57
30
-147.36
11
-85.00
21
218.07
31
-147.36
0
LINE
8
CentreLine
10
-90.25
20
201.36
30
-142.46
11
-92.49
21
204.01
31
-145.33
0
LINE
8
CentreLine
10
-92.49
20
204.01
30
-145.33
11
-92.49
21
207.83
31
-145.33
0
LINE
8
CentreLine
10
138.95
20
301.60
30
 -5.34
11
134.05
21
301.60
31
 -7.83
0
LINE
8
CentreLine
10
134.05
20
301.60
30
 -7.83
11
133.96
21
300.61
31
 -2.73
0
LINE
8
CentreLine
10
133.96
20
300.61
30
 -2.73
11
133.96
21
315.11
31
 -2.73
0
LINE
8
CentreLine
10
133.96
20
315.11
30
 -2.73
11
134.76
21
316.36
31
 -0.62
0
LINE
8
CentreLine
10
134.76
20
316.36
30
 -0.62
11
131.87
21
312.37
31
  3.36
0
LINE
8
CentreLine
10
131.87
20
312.37
30
  3.36
11
131.32
21
300.80
31
 11.14
0
LINE
8
CentreLine
10
-22.10
20
244.88
30
-133.57
11
-15.04
21
244.39
31
-133.45
0
LINE
8
CentreLine
10
-15.04
20
244.39
30
-133.45
11
-18.43
21
221.25
31
-121.63
0
LINE
8
CentreLine
10
-18.43
20
221.25
30
-121.63
11
-12.98
21
219.70
31
-123.61
0
LINE
8
CentreLine
10
-12.98
20
219.70
30
-123.61
11
-11.91
21
218.80
31
-119.86
0
LINE
8
CentreLine
10
-11.91
20
218.80
30
-119.86
11
-10.16
21
218.41
31
-118.12
0
LINE
8
CentreLine
10
-10.16
20
218.41
30
-118.12
11
 -9.75
21
219.95
31
-118.04
0
LINE
8
CentreLine
10
 -9.75
20
219.95
30
-118.04
11
 -7.17
21
220.22
31
-116.55
0
LINE
8
CentreLine
10
 -7.17
20
220.22
30
-116.55
11
 -7.17
21
207.32
31
-116.55
0
LINE
8
CentreLine
10
 -7.17
20
207.32
30
-116.55
11
-13.87
21
211.69
31
-125.77
0
LINE
8
CentreLine
10
-13.87
20
211.69
30
-125.77
11
-16.95
21
210.50
31
-123.77
0
LINE
8
CentreLine
10
-16.95
20
210.50
30
-123.77
11
-16.95
21
187.75
31
-123.77
0
LINE
8
CentreLine
10
-16.95
20
187.75
30
-123.77
11
-19.38
21
179.65
31
-120.88
0
LINE
8
CentreLine
10
-19.38
20
179.65
30
-120.88
11
-15.84
21
179.12
31
-119.59
0
LINE
8
CentreLine
10
-15.84
20
179.12
30
-119.59
11
-18.12
21
173.38
31
-117.75
0
LINE
8
CentreLine
10
-18.12
20
173.38
30
-117.75
11
-18.12
21
145.23
31
-117.75
0
LINE
8
CentreLine
10
-18.12
20
145.23
30
-117.75
11
-18.12
21
128.62
31
-117.75
0
LINE
8
CentreLine
10
-18.12
20
128.62
30
-117.75
11
-21.77
21
136.14
31
-109.91
0
LINE
8
CentreLine
10
-21.77
20
136.14
30
-109.91
11
-18.25
21
137.54
31
-107.87
0
LINE
8
CentreLine
10
-18.25
20
137.54
30
-107.87
11
-19.53
21
136.68
31
-99.84
0
LINE
8
CentreLine
10
-19.53
20
136.68
30
-99.84
11
-19.53
21
116.75
31
-99.84
0
LINE
8
CentreLine
10
-18.12
20
128.62
30
-117.75
11
-16.35
21
128.62
31
-114.80
0
LINE
8
CentreLine
10
-16.35
20
128.62
30
-114.80
11
-16.53
21
127.51
31
-113.92
0
LINE
8
CentreLine
10
-16.53
20
127.51
30
-113.92
11
-16.53
21
113.19
31
-113.92
0
LINE
8
CentreLine
10
-19.53
20
136.68
30
-99.84
11
-20.49
21
136.02
31
-101.51
0
LINE
8
CentreLine
10
-20.49
20
136.02
30
-101.51
11
-18.62
21
134.97
31
-100.47
0
LINE
8
CentreLine
10
-18.62
20
134.97
30
-100.47
11
-17.92
21
132.74
31
-101.68
0
LINE
8
CentreLine
10
-17.92
20
132.74
30
-101.68
11
-15.73
21
129.85
31
-102.70
0
LINE
8
CentreLine
10
-15.73
20
129.85
30
-102.70
11
-15.96
21
125.74
31
-102.98
0
LINE
8
CentreLine
10
-15.96
20
125.74
30
-102.98
11
-11.20
21
122.79
31
-100.12
0
LINE
8
CentreLine
10
-11.20
20
122.79
30
-100.12
11
-11.20
21
114.63
31
-100.12
0
LINE
8
CentreLine
10
-11.20
20
114.63
30
-100.12
11
-12.31
21
115.87
31
-101.02
0
LINE
8
CentreLine
10
-12.31
20
115.87
30
-101.02
11
 -6.78
21
118.42
31
-97.95
0
LINE
8
CentreLine
10
-11.20
20
114.63
30
-100.12
11
-15.18
21
115.64
31
-97.55
0
LINE
8
CentreLine
10
-11.20
20
114.63
30
-100.12
11
-15.12
21
114.30
31
-102.76
0
LINE
8
CentreLine
10
-19.53
20
136.68
30
-99.84
11
-17.39
21
137.34
31
-99.61
0
LINE
8
CentreLine
10
-17.39
20
137.34
30
-99.61
11
-15.92
21
137.50
31
-96.97
0
LINE
8
CentreLine
10
 84.28
20
301.93
30
-55.48
11
 87.13
21
302.21
31
-59.88
0
LINE
8
CentreLine
10
 87.13
20
302.21
30
-59.88
11
 79.84
21
295.05
31
-74.20
0
LINE
8
CentreLine
10
 79.84
20
295.05
30
-74.20
11
 80.92
21
289.91
31
-68.61
0
LINE
8
CentreLine
10
 80.92
20
289.91
30
-68.61
11
 80.48
21
287.81
31
-68.89
0
LINE
8
CentreLine
10
 80.48
20
287.81
30
-68.89
11
 78.70
21
287.12
31
-67.95
0
LINE
8
CentreLine
10
 78.70
20
287.12
30
-67.95
11
 78.70
21
275.37
31
-67.95
0
LINE
8
CentreLine
10
 78.70
20
275.37
30
-67.95
11
 75.19
21
275.44
31
-65.30
0
LINE
8
CentreLine
10
 75.19
20
275.44
30
-65.30
11
 75.19
21
259.48
31
-65.30
0
LINE
8
CentreLine
10
 75.19
20
259.48
30
-65.30
11
 75.19
21
211.28
31
-65.30
0
LINE
8
CentreLine
10
 75.19
20
211.28
30
-65.30
11
 72.28
21
207.74
31
-62.86
0
LINE
8
CentreLine
10
 72.28
20
207.74
30
-62.86
11
 74.60
21
211.92
31
-50.93
0
LINE
8
CentreLine
10
 74.60
20
211.92
30
-50.93
11
 73.09
21
212.23
31
-48.93
0
LINE
8
CentreLine
10
 73.09
20
212.23
30
-48.93
11
 72.63
21
210.71
31
-48.27
0
LINE
8
CentreLine
10
 72.63
20
210.71
30
-48.27
11
 71.88
21
206.05
31
-46.75
0
LINE
8
CentreLine
10
 71.88
20
206.05
30
-46.75
11
 70.97
21
201.06
31
-46.41
0
LINE
8
CentreLine
10
 70.97
20
201.06
30
-46.41
11
 68.43
21
192.73
31
-44.76
0
LINE
8
CentreLine
10
 68.43
20
192.73
30
-44.76
11
 65.73
21
190.84
31
-43.14
0
LINE
8
CentreLine
10
 65.73
20
190.84
30
-43.14
11
 64.32
21
185.81
31
-43.96
0
LINE
8
CentreLine
10
 64.32
20
185.81
30
-43.96
11
 64.28
21
175.23
31
-43.40
0
LINE
8
CentreLine
10
 64.28
20
175.23
30
-43.40
11
 64.28
21
120.63
31
-43.40
0
LINE
8
CentreLine
10
 64.28
20
120.63
30
-43.40
11
 61.69
21
121.85
31
-42.51
0
LINE
8
CentreLine
10
 61.69
20
121.85
30
-42.51
11
 54.49
21
120.82
31
-43.78
0
LINE
8
CentreLine
10
 54.49
20
120.82
30
-43.78
11
 53.46
21
120.95
31
-46.10
0
LINE
8
CentreLine
10
 53.46
20
120.95
30
-46.10
11
 51.93
21
118.97
31
-47.69
0
LINE
8
CentreLine
10
 51.93
20
118.97
30
-47.69
11
 48.27
21
116.86
31
-48.73
0
LINE
8
CentreLine
10
 48.27
20
116.86
30
-48.73
11
 47.43
21
117.14
31
-47.34
0
LINE
8
CentreLine
10
 47.43
20
117.14
30
-47.34
11
 42.62
21
117.67
31
-48.72
0
LINE
8
CentreLine
10
 42.62
20
117.67
30
-48.72
11
 35.66
21
116.71
31
-52.27
0
LINE
8
CentreLine
10
 35.66
20
116.71
30
-52.27
11
 35.22
21
116.71
31
-60.83
0
LINE
8
CentreLine
10
 35.22
20
116.71
30
-60.83
11
 47.59
21
121.72
31
-60.19
0
LINE
8
CentreLine
10
 47.59
20
121.72
30
-60.19
11
 45.66
21
117.39
31
-65.82
0
LINE
8
CentreLine
10
 45.66
20
117.39
30
-65.82
11
 45.66
21
112.59
31
-65.82
0
LINE
8
CentreLine
10
 35.22
20
116.71
30
-60.83
11
 33.21
21
115.91
31
-60.26
0
LINE
8
CentreLine
10
 33.21
20
115.91
30
-60.26
11
 33.00
21
106.57
31
-54.43
0
LINE
8
CentreLine
10
 33.00
20
106.57
30
-54.43
11
 33.00
21
 77.56
31
-54.43
0
LINE
8
CentreLine
10
 42.62
20
117.67
30
-48.72
11
 37.59
21
113.36
31
-52.65
0
LINE
8
CentreLine
10
 37.59
20
113.36
30
-52.65
11
 35.03
21
110.71
31
-54.80
0
LINE
8
CentreLine
10
 35.03
20
110.71
30
-54.80
11
 35.03
21
 76.61
31
-54.80
0
LINE
8
CentreLine
10
 35.03
20
 76.61
30
-54.80
11
 28.10
21
 79.53
31
-52.74
0
LINE
8
CentreLine
10
 28.10
20
 79.53
30
-52.74
11
 27.94
21
 76.84
31
-48.10
0
LINE
8
CentreLine
10
 27.94
20
 76.84
30
-48.10
11
 31.99
21
 77.95
31
-45.57
0
LINE
8
CentreLine
10
 31.99
20
 77.95
30
-45.57
11
 30.84
21
 78.48
31
-43.58
0
LINE
8
CentreLine
10
 31.99
20
 77.95
30
-45.57
11
 32.27
21
 77.16
31
-41.55
0
LINE
8
CentreLine
10
 32.27
20
 77.16
30
-41.55
11
 33.09
21
 77.03
31
-40.57
0
LINE
8
CentreLine
10
 33.09
20
 77.03
30
-40.57
11
 33.09
21
 78.63
31
-40.57
0
LINE
8
CentreLine
10
 33.09
20
 78.63
30
-40.57
11
 36.80
21
 76.86
31
-38.68
0
LINE
8
CentreLine
10
 36.80
20
 76.86
30
-38.68
11
 38.00
21
 77.92
31
-36.21
0
LINE
8
CentreLine
10
 38.00
20
 77.92
30
-36.21
11
 39.90
21
 78.58
31
-35.45
0
LINE
8
CentreLine
10
 39.90
20
 78.58
30
-35.45
11
 39.79
21
 78.77
31
-33.31
0
LINE
8
CentreLine
10
 39.79
20
 78.77
30
-33.31
11
 46.03
21
 79.78
31
-27.88
0
LINE
8
CentreLine
10
 46.03
20
 79.78
30
-27.88
11
 48.29
21
 79.33
31
-26.11
0
LINE
8
CentreLine
10
 48.29
20
 79.33
30
-26.11
11
 49.93
21
 77.74
31
-24.17
0
LINE
8
CentreLine
10
 49.93
20
 77.74
30
-24.17
11
 50.99
21
 78.41
31
-23.73
0
LINE
8
CentreLine
10
 50.99
20
 78.41
30
-23.73
11
 50.09
21
 73.28
31
-22.83
0
LINE
8
CentreLine
10
 50.09
20
 73.28
30
-22.83
11
 54.78
21
 37.11
31
-19.54
0
LINE
8
CentreLine
10
 54.78
20
 37.11
30
-19.54
11
 57.77
21
 37.94
31
-20.94
0
LINE
8
CentreLine
10
 57.77
20
 37.94
30
-20.94
11
 60.67
21
 32.74
31
-15.71
0
LINE
8
CentreLine
10
 60.67
20
 32.74
30
-15.71
11
 65.62
21
 34.85
31
-13.30
0
LINE
8
CentreLine
10
 65.62
20
 34.85
30
-13.30
11
 69.78
21
 31.93
31
 -8.99
0
LINE
8
CentreLine
10
 69.78
20
 31.93
30
 -8.99
11
 69.78
21
  4.02
31
 -8.99
0
LINE
8
CentreLine
10
 69.78
20
  4.02
30
 -8.99
11
 73.34
21
  5.85
31
 -7.33
0
LINE
8
CentreLine
10
 73.34
20
  5.85
30
 -7.33
11
 81.19
21
  5.85
31
-10.83
0
LINE
8
CentreLine
10
 69.78
20
  4.02
30
 -8.99
11
 65.48
21
  3.71
31
-10.47
0
LINE
8
CentreLine
10
 65.48
20
  3.71
30
-10.47
11
 65.48
21
-28.41
31
-10.47
0
LINE
8
CentreLine
10
 65.48
20
-28.41
30
-10.47
11
 65.48
21
-79.11
31
-10.47
0
LINE
8
CentreLine
10
 65.48
20
-79.11
30
-10.47
11
 70.57
21
-81.06
31
-12.13
0
LINE
8
CentreLine
10
 70.57
20
-81.06
30
-12.13
11
 70.57
21
-91.06
31
-12.13
0
LINE
8
CentreLine
10
 65.48
20
-79.11
30
-10.47
11
 61.41
21
-76.02
31
 -5.62
0
LINE
8
CentreLine
10
 61.41
20
-76.02
30
 -5.62
11
 58.44
21
-76.91
31
 -0.04
0
LINE
8
CentreLine
10
 58.44
20
-76.91
30
 -0.04
11
 58.44
21
-86.91
31
 -0.04
0
LINE
8
CentreLine
10
-107.04
20
 29.76
30
-92.23
11
-103.89
21
 32.79
31
-87.19
0
LINE
8
CentreLine
10
-103.89
20
 32.79
30
-87.19
11
-100.98
21
 33.42
31
-87.65
0
LINE
8
CentreLine
10
-100.98
20
 33.42
30
-87.65
11
-93.83
21
 20.22
31
-79.71
0
LINE
8
CentreLine
10
-93.83
20
 20.22
30
-79.71
11
-100.25
21
 24.49
31
-58.71
0
LINE
8
CentreLine
10
-100.25
20
 24.49
30
-58.71
11
-95.38
21
 28.18
31
-55.78
0
LINE
8
CentreLine
10
-99.93
20
-52.06
30
-50.49
11
-97.09
21
-51.06
31
-48.85
0
LINE
8
CentreLine
10
-97.09
20
-51.06
30
-48.85
11
-103.26
21
-47.87
31
-56.46
0
LINE
8
CentreLine
10
-103.26
20
-47.87
30
-56.46
11
-102.52
21
-47.87
31
-60.64
0
LINE
8
CentreLine
10
-102.52
20
-47.87
30
-60.64
11
-100.59
21
-47.87
31
-62.79
0
LINE
8
CentreLine
10
-100.59
20
-47.87
30
-62.79
11
-99.77
21
-48.75
31
-65.04
0
LINE
8
CentreLine
10
-99.77
20
-48.75
30
-65.04
11
-101.80
21
-50.65
31
-66.69
0
LINE
8
CentreLine
10
-101.80
20
-50.65
30
-66.69
11
-101.71
21
-51.60
31
-69.32
0
LINE
8
CentreLine
10
-101.71
20
-51.60
30
-69.32
11
-102.17
21
-52.45
31
-74.66
0
LINE
8
CentreLine
10
-102.17
20
-52.45
30
-74.66
11
-102.99
21
-52.60
31
-75.79
0
LINE
8
CentreLine
10
-102.99
20
-52.60
30
-75.79
11
-105.97
21
-52.21
31
-82.48
0
LINE
8
CentreLine
10
-105.97
20
-52.21
30
-82.48
11
-105.27
21
-53.00
31
-86.49
0
LINE
8
CentreLine
10
-105.27
20
-53.00
30
-86.49
11
-106.36
21
-53.26
31
-87.40
0
LINE
8
CentreLine
10
-106.36
20
-53.26
30
-87.40
11
-105.80
21
-51.29
31
-92.01
0
LINE
8
CentreLine
10
-105.80
20
-51.29
30
-92.01
11
-106.62
21
-49.29
31
-101.38
0
LINE
8
CentreLine
10
-91.04
20
-85.59
30
 15.99
11
-91.04
21
-80.34
31
 15.99
0
LINE
8
CentreLine
10
-91.04
20
-80.34
30
 15.99
11
-89.11
21
-79.31
31
 16.85
0
LINE
8
CentreLine
10
-89.11
20
-79.31
30
 16.85
11
-81.15
21
-78.98
31
 11.48
0
LINE
8
CentreLine
10
-81.15
20
-78.98
30
 11.48
11
-83.05
21
-79.27
31
  9.44
0
LINE
8
CentreLine
10
-83.05
20
-79.27
30
  9.44
11
-77.70
21
-78.37
31
  4.44
0
LINE
8
CentreLine
10
-77.70
20
-78.37
30
  4.44
11
-75.67
21
-81.73
31
 -5.11
0
LINE
8
CentreLine
10
-75.67
20
-81.73
30
 -5.11
11
-79.45
21
-80.43
31
 -9.32
0
LINE
8
CentreLine
10
-79.45
20
-80.43
30
 -9.32
11
-74.88
21
-79.65
31
-23.41
0
LINE
8
CentreLine
10
-74.88
20
-79.65
30
-23.41
11
-68.05
21
-80.08
31
-28.01
0
LINE
8
CentreLine
10
-68.05
20
-80.08
30
-28.01
11
-63.47
21
-80.97
31
-27.69
0
LINE
8
CentreLine
10
-63.47
20
-80.97
30
-27.69
11
-64.34
21
-81.90
31
-29.95
0
LINE
8
CentreLine
10
-64.34
20
-81.90
30
-29.95
11
-63.40
21
-84.62
31
-33.72
0
LINE
8
CentreLine
10
-63.40
20
-84.62
30
-33.72
11
-58.81
21
-84.50
31
-39.00
0
LINE
8
CentreLine
10
-58.81
20
-84.50
30
-39.00
11
-59.53
21
-84.79
31
-47.19
0
LINE
8
CentreLine
10
-59.53
20
-84.79
30
-47.19
11
-60.99
21
-86.51
31
-46.88
0
LINE
8
CentreLine
10
-60.99
20
-86.51
30
-46.88
11
-59.43
21
-86.87
31
-40.11
0
LINE
8
CentreLine
10
-59.43
20
-86.87
30
-40.11
11
-61.71
21
-87.11
31
-39.79
0
LINE
8
CentreLine
10
-61.71
20
-87.11
30
-39.79
11
-61.71
21
-108.89
31
-39.79
0
LINE
8
CentreLine
10
-61.71
20
-108.89
30
-39.79
11
-51.71
21
-103.98
31
-41.02
0
LINE
8
CentreLine
10
-51.71
20
-103.98
30
-41.02
11
-49.87
21
-102.19
31
-47.43
0
LINE
8
CentreLine
10
-51.71
20
-103.98
30
-41.02
11
-49.24
21
-107.27
31
-37.61
0
LINE
8
CentreLine
10
-49.24
20
-107.27
30
-37.61
11
-49.03
21
-110.38
31
-35.68
0
LINE
8
CentreLine
10
-49.03
20
-110.38
30
-35.68
11
-48.22
21
-110.64
31
-33.30
0
LINE
8
CentreLine
10
-48.22
20
-110.64
30
-33.30
11
-44.52
21
-111.80
31
-31.73
0
LINE
8
CentreLine
10
-44.52
20
-111.80
30
-31.73
11
-43.37
21
-112.60
31
-27.73
0
LINE
8
CentreLine
10
-43.37
20
-112.60
30
-27.73
11
-41.49
21
-113.26
31
-24.03
0
LINE
8
CentreLine
10
-41.49
20
-113.26
30
-24.03
11
-41.56
21
-111.97
31
-21.97
0
LINE
8
CentreLine
10
-41.56
20
-111.97
30
-21.97
11
-39.67
21
-112.28
31
-20.93
0
LINE
8
CentreLine
10
-39.67
20
-112.28
30
-20.93
11
-37.43
21
-112.72
31
-16.33
0
LINE
8
CentreLine
10
-37.43
20
-112.72
30
-16.33
11
-43.00
21
-116.34
31
-14.74
0
LINE
8
CentreLine
10
-41.56
20
-111.97
30
-21.97
11
-39.36
21
-112.44
31
-21.00
0
LINE
8
CentreLine
10
-39.36
20
-112.44
30
-21.00
11
-38.20
21
-114.36
31
-15.54
0
LINE
8
CentreLine
10
-38.20
20
-114.36
30
-15.54
11
-38.54
21
-115.11
31
-16.07
0
LINE
8
CentreLine
10
-38.54
20
-115.11
30
-16.07
11
-41.25
21
-116.77
31
-14.81
0
LINE
8
CentreLine
10
-41.25
20
-116.77
30
-14.81
11
-46.17
21
-119.07
31
-14.55
0
LINE
8
CentreLine
10
-46.17
20
-119.07
30
-14.55
11
-48.48
21
-119.89
31
-15.21
0
LINE
8
CentreLine
10
-37.43
20
-112.72
30
-16.33
11
-34.81
21
-111.08
31
-16.66
0
LINE
8
CentreLine
10
-34.81
20
-111.08
30
-16.66
11
-33.50
21
-112.31
31
-15.77
0
LINE
8
CentreLine
10
-33.50
20
-112.31
30
-15.77
11
-28.41
21
-113.32
31
-14.78
0
LINE
8
CentreLine
10
-28.41
20
-113.32
30
-14.78
11
-28.91
21
-116.65
31
-12.76
0
LINE
8
CentreLine
10
-28.91
20
-116.65
30
-12.76
11
-28.91
21
-121.28
31
-12.76
0
LINE
8
CentreLine
10
-28.91
20
-121.28
30
-12.76
11
-22.92
21
-120.95
31
-10.81
0
LINE
8
CentreLine
10
-22.92
20
-120.95
30
-10.81
11
-18.56
21
-123.86
31
 -7.53
0
LINE
8
CentreLine
10
-18.56
20
-123.86
30
 -7.53
11
-18.37
21
-121.39
31
 -3.73
0
LINE
8
CentreLine
10
-18.37
20
-121.39
30
 -3.73
11
-16.62
21
-119.68
31
 -1.34
0
LINE
8
CentreLine
10
-16.62
20
-119.68
30
 -1.34
11
-13.34
21
-124.34
31
  6.04
0
LINE
8
CentreLine
10
-13.34
20
-124.34
30
  6.04
11
 -6.87
21
-136.09
31
 10.09
0
LINE
8
CentreLine
10
 -6.87
20
-136.09
30
 10.09
11
-14.22
21
-138.76
31
 12.48
0
LINE
8
CentreLine
10
-14.22
20
-138.76
30
 12.48
11
-13.51
21
-140.61
31
 11.34
0
LINE
8
CentreLine
10
-13.51
20
-140.61
30
 11.34
11
-16.16
21
-140.61
31
 10.21
0
LINE
8
CentreLine
10
-16.16
20
-140.61
30
 10.21
11
-16.16
21
-142.40
31
 10.21
0
LINE
8
CentreLine
10
-16.16
20
-142.40
30
 10.21
11
-19.13
21
-143.68
31
  9.07
0
LINE
8
CentreLine
10
-19.13
20
-143.68
30
  9.07
11
-18.29
21
-143.60
31
  4.29
0
LINE
8
CentreLine
10
-18.29
20
-143.60
30
  4.29
11
-16.00
21
-144.77
31
  1.76
0
LINE
8
CentreLine
10
-16.00
20
-144.77
30
  1.76
11
-21.32
21
-148.58
31
 -3.03
0
LINE
8
CentreLine
10
-21.32
20
-148.58
30
 -3.03
11
-25.22
21
-149.41
31
 -3.44
0
LINE
8
CentreLine
10
-25.22
20
-149.41
30
 -3.44
11
-27.03
21
-150.89
31
 -4.67
0
LINE
8
CentreLine
10
-27.03
20
-150.89
30
 -4.67
11
-31.44
21
-152.19
31
 -5.68
0
LINE
8
CentreLine
10
-31.44
20
-152.19
30
 -5.68
11
-37.97
21
-155.82
31
 -7.68
0
LINE
8
CentreLine
10
-37.97
20
-155.82
30
 -7.68
11
-51.48
21
-155.57
31
-11.05
0
LINE
8
CentreLine
10
-51.48
20
-155.57
30
-11.05
11
-55.08
21
-157.04
31
-10.54
0
LINE
8
CentreLine
10
-61.71
20
-108.89
30
-39.79
11
-59.15
21
-109.09
31
-41.09
0
LINE
8
CentreLine
10
-59.15
20
-109.09
30
-41.09
11
-55.99
21
-112.61
31
-43.15
0
LINE
8
CentreLine
10
-55.99
20
-112.61
30
-43.15
11
-55.99
21
-138.42
31
-43.15
0
LINE
8
CentreLine
10
-55.99
20
-138.42
30
-43.15
11
-61.39
21
-138.59
31
-34.51
0
LINE
8
CentreLine
10
-61.39
20
-138.59
30
-34.51
11
-69.66
21
-146.24
31
-32.60
0
LINE
8
CentreLine
10
-69.66
20
-146.24
30
-32.60
11
-79.79
21
-160.54
31
-34.93
0
LINE
8
CentreLine
10
-79.79
20
-160.54
30
-34.93
11
-91.66
21
-164.17
31
-35.14
0
LINE
8
CentreLine
10
-91.66
20
-164.17
30
-35.14
11
-95.17
21
-169.19
31
-36.56
0
LINE
8
CentreLine
10
-95.17
20
-169.19
30
-36.56
11
-95.17
21
-194.34
31
-36.56
0
LINE
8
CentreLine
10
-95.17
20
-194.34
30
-36.56
11
-98.47
21
-197.78
31
-36.96
0
LINE
8
CentreLine
10
-98.47
20
-197.78
30
-36.96
11
-102.22
21
-199.64
31
-33.93
0
LINE
8
CentreLine
10
-102.22
20
-199.64
30
-33.93
11
-107.25
21
-201.26
31
-36.49
0
LINE
8
CentreLine
10
-107.25
20
-201.26
30
-36.49
11
-113.61
21
-203.18
31
-38.68
0
LINE
8
CentreLine
10
-113.61
20
-203.18
30
-38.68
11
-115.96
21
-204.09
31
-39.88
0
LINE
8
CentreLine
10
-115.96
20
-204.09
30
-39.88
11
-117.97
21
-205.71
31
-41.51
0
LINE
8
CentreLine
10
-117.97
20
-205.71
30
-41.51
11
-117.05
21
-212.51
31
-44.70
0
LINE
8
CentreLine
10
-117.05
20
-212.51
30
-44.70
11
-119.74
21
-215.32
31
-35.91
0
LINE
8
CentreLine
10
-113.61
20
-203.18
30
-38.68
11
-115.97
21
-201.04
31
-34.74
0
LINE
8
CentreLine
10
-110.43
20
-161.75
30
 58.33
11
-114.11
21
-165.08
31
 67.90
0
LINE
8
CentreLine
10
-114.11
20
-165.08
30
 67.90
11
-115.11
21
-165.28
31
 69.51
0
LINE
8
CentreLine
10
-115.11
20
-165.28
30
 69.51
11
-118.92
21
-166.06
31
 73.59
0
LINE
8
CentreLine
10
-118.92
20
-166.06
30
 73.59
11
-119.47
21
-166.98
31
 77.54
0
LINE
8
CentreLine
10
-119.47
20
-166.98
30
 77.54
11
-119.47
21
-168.52
31
 77.54
0
LINE
8
CentreLine
10
-119.47
20
-168.52
30
 77.54
11
-122.19
21
-169.12
31
 78.21
0
LINE
8
CentreLine
10
-122.19
20
-169.12
30
 78.21
11
-123.60
21
-170.15
31
 83.90
0
LINE
8
CentreLine
10
-123.60
20
-170.15
30
 83.90
11
-124.66
21
-170.37
31
 85.08
0
LINE
8
CentreLine
10
-124.66
20
-170.37
30
 85.08
11
-125.53
21
-170.64
31
 86.77
0
LINE
8
CentreLine
10
-125.53
20
-170.64
30
 86.77
11
-125.53
21
-175.54
31
 86.77
0
LINE
8
CentreLine
10
-125.53
20
-175.54
30
 86.77
11
-124.54
21
-175.72
31
 90.01
0
LINE
8
CentreLine
10
-124.54
20
-175.72
30
 90.01
11
-128.86
21
-176.17
31
 90.08
0
LINE
8
CentreLine
10
-128.86
20
-176.17
30
 90.08
11
-130.15
21
-176.30
31
 91.42
0
LINE
8
CentreLine
10
-130.15
20
-176.30
30
 91.42
11
-131.45
21
-176.65
31
 90.67
0
LINE
8
CentreLine
10
-131.45
20
-176.65
30
 90.67
11
-133.54
21
-176.79
31
 92.48
0
LINE
8
CentreLine
10
-133.54
20
-176.79
30
 92.48
11
-133.54
21
-179.03
31
 92.48
0
LINE
8
CentreLine
10
-133.54
20
-179.03
30
 92.48
11
-138.04
21
-179.22
31
 89.33
0
LINE
8
CentreLine
10
-138.04
20
-179.22
30
 89.33
11
-143.20
21
-180.80
31
 83.98
0
LINE
8
CentreLine
10
-167.38
20
-204.53
30
 52.14
11
-174.55
21
-224.04
31
 54.33
0
LINE
8
CentreLine
10
-174.55
20
-224.04
30
 54.33
11
-173.76
21
-231.50
31
 59.30
0
LINE
8
CentreLine
10
-173.76
20
-231.50
30
 59.30
11
-178.84
21
-238.70
31
 64.04
0
LINE
8
CentreLine
10
-178.84
20
-238.70
30
 64.04
11
-183.51
21
-244.05
31
 65.21
0
LINE
8
CentreLine
10
-183.51
20
-244.05
30
 65.21
11
-186.97
21
-245.88
31
 62.60
0
LINE
8
CentreLine
10
-186.97
20
-245.88
30
 62.60
11
-190.85
21
-247.95
31
 62.47
0
LINE
8
CentreLine
10
-190.85
20
-247.95
30
 62.47
11
-192.71
21
-249.54
31
 64.20
0
LINE
8
CentreLine
10
-192.71
20
-249.54
30
 64.20
11
-192.71
21
-253.84
31
 64.20
0
LINE
8
CentreLine
10
-192.71
20
-253.84
30
 64.20
11
-196.68
21
-255.60
31
 67.41
0
LINE
8
CentreLine
10
-196.68
20
-255.60
30
 67.41
11
-199.47
21
-256.10
31
 66.82
0
LINE
8
CentreLine
10
-199.47
20
-256.10
30
 66.82
11
-201.05
21
-256.29
31
 67.66
0
LINE
8
CentreLine
10
-201.05
20
-256.29
30
 67.66
11
-201.08
21
-256.17
31
 69.06
0
LINE
8
CentreLine
10
-201.08
20
-256.17
30
 69.06
11
-201.34
21
-259.03
31
 76.52
0
LINE
8
CentreLine
10
-201.34
20
-259.03
30
 76.52
11
-205.90
21
-261.92
31
 81.58
0
LINE
8
CentreLine
10
-205.90
20
-261.92
30
 81.58
11
-211.53
21
-266.91
31
 87.22
0
LINE
8
CentreLine
10
-211.53
20
-266.91
30
 87.22
11
-215.99
21
-275.68
31
 94.08
0
LINE
8
CentreLine
10
-215.99
20
-275.68
30
 94.08
11
-219.50
21
-286.85
31
 99.49
0
LINE
8
CentreLine
10
-219.50
20
-286.85
30
 99.49
11
-225.23
21
-291.91
31
 98.48
0
LINE
8
CentreLine
10
-225.23
20
-291.91
30
 98.48
11
-230.37
21
-294.80
31
 94.01
0
LINE
8
CentreLine
10
-230.37
20
-294.80
30
 94.01
11
-244.27
21
-323.65
31
 91.81
0
LINE
8
CentreLine
10
-244.27
20
-323.65
30
 91.81
11
-247.14
21
-322.97
31
 92.37
0
LINE
8
CentreLine
10
-247.14
20
-322.97
30
 92.37
11
-248.55
21
-336.35
31
 99.65
0
LINE
8
CentreLine
10
-248.55
20
-336.35
30
 99.65
11
-254.67
21
-342.07
31
106.94
0
LINE
8
CentreLine
10
-254.67
20
-342.07
30
106.94
11
-261.77
21
-342.79
31
118.75
0
LINE
8
CentreLine
10
-261.77
20
-342.79
30
118.75
11
-264.62
21
-345.80
31
124.88
0
LINE
8
CentreLine
10
-264.62
20
-345.80
30
124.88
11
-268.23
21
-351.14
31
133.80
0
LINE
8
CentreLine
10
-268.23
20
-351.14
30
133.80
11
-274.22
21
-355.77
31
138.66
0
LINE
8
CentreLine
10
-274.22
20
-355.77
30
138.66
11
-276.30
21
-367.20
31
147.67
0
LINE
8
CentreLine
10
-276.30
20
-367.20
30
147.67
11
-284.32
21
-374.70
31
155.69
0
LINE
8
CentreLine
10
-284.32
20
-374.70
30
155.69
11
-291.11
21
-384.49
31
157.83
0
LINE
8
CentreLine
10
-291.11
20
-384.49
30
157.83
11
-295.96
21
-392.68
31
158.60
0
LINE
8
CentreLine
10
-295.96
20
-392.68
30
158.60
11
-295.96
21
-403.68
31
158.60
0
LINE
8
CentreLine
10
-295.96
20
-403.68
30
158.60
11
-300.67
21
-410.97
31
157.16
0
LINE
8
CentreLine
10
-300.67
20
-410.97
30
157.16
11
-302.27
21
-414.77
31
157.02
0
LINE
8
CentreLine
10
-302.27
20
-414.77
30
157.02
11
-303.78
21
-416.29
31
155.22
0
LINE
8
CentreLine
10
-303.78
20
-416.29
30
155.22
11
-307.04
21
-426.05
31
151.47
0
LINE
8
CentreLine
10
-307.04
20
-426.05
30
151.47
11
-311.31
21
-429.76
31
150.33
0
LINE
8
CentreLine
10
-311.31
20
-429.76
30
150.33
11
-319.33
21
-448.72
31
151.03
0
LINE
8
CentreLine
10
-319.33
20
-448.72
30
151.03
11
-320.51
21
-451.17
31
154.46
0
LINE
8
CentreLine
10
-320.51
20
-451.17
30
154.46
11
-328.18
21
-464.70
31
155.95
0
LINE
8
CentreLine
10
-328.18
20
-464.70
30
155.95
11
-329.77
21
-469.78
31
144.64
0
LINE
8
CentreLine
10
-210.83
20
-264.07
30
 81.35
11
-212.71
21
-272.48
31
 87.16
0
LINE
8
CentreLine
10
-212.71
20
-272.48
30
 87.16
11
-216.31
21
-278.01
31
 95.25
0
LINE
8
CentreLine
10
-216.31
20
-278.01
30
 95.25
11
-221.60
21
-292.21
31
 93.01
0
LINE
8
CentreLine
10
-221.60
20
-292.21
30
 93.01
11
-222.31
21
-290.99
31
 90.36
0
LINE
8
CentreLine
10
-222.31
20
-290.99
30
 90.36
11
-227.01
21
-294.29
31
 87.97
0
LINE
8
CentreLine
10
-227.01
20
-294.29
30
 87.97
11
-232.94
21
-312.14
31
 91.39
0
LINE
8
CentreLine
10
-232.94
20
-312.14
30
 91.39
11
-228.89
21
-312.22
31
 94.13
0
LINE
8
CentreLine
10
-228.89
20
-312.22
30
 94.13
11
-232.54
21
-324.51
31
 99.54
0
LINE
8
CentreLine
10
-232.54
20
-324.51
30
 99.54
11
-234.88
21
-329.91
31
105.07
0
LINE
8
CentreLine
10
-234.88
20
-329.91
30
105.07
11
-238.36
21
-341.87
31
107.68
0
LINE
8
CentreLine
10
-184.15
20
-244.15
30
 63.80
11
-184.50
21
-245.39
31
 62.82
0
LINE
8
CentreLine
10
-184.50
20
-245.39
30
 62.82
11
-188.67
21
-249.42
31
 71.36
0
LINE
8
CentreLine
10
-188.67
20
-249.42
30
 71.36
11
-189.37
21
-250.12
31
 72.23
0
LINE
8
CentreLine
10
-189.37
20
-250.12
30
 72.23
11
-190.56
21
-251.06
31
 74.37
0
LINE
8
CentreLine
10
-190.56
20
-251.06
30
 74.37
11
-193.03
21
-251.89
31
 77.02
0
LINE
8
CentreLine
10
-193.03
20
-251.89
30
 77.02
11
-194.91
21
-254.00
31
 79.52
0
LINE
8
CentreLine
10
-194.91
20
-254.00
30
 79.52
11
-197.68
21
-256.59
31
 82.81
0
LINE
8
CentreLine
10
-197.68
20
-256.59
30
 82.81
11
-198.87
21
-256.98
31
 82.15
0
LINE
8
CentreLine
10
-198.87
20
-256.98
30
 82.15
11
-194.51
21
-257.27
31
 89.41
0
LINE
8
CentreLine
10
-194.51
20
-257.27
30
 89.41
11
-194.51
21
-259.76
31
 89.41
0
LINE
8
CentreLine
10
-194.51
20
-259.76
30
 89.41
11
-189.96
21
-260.31
31
 93.65
0
LINE
8
CentreLine
10
-189.96
20
-260.31
30
 93.65
11
-188.28
21
-261.50
31
 94.70
0
LINE
8
CentreLine
10
-188.28
20
-261.50
30
 94.70
11
-185.47
21
-261.50
31
 98.05
0
LINE
8
CentreLine
10
-185.47
20
-261.50
30
 98.05
11
-185.47
21
-260.12
31
 98.05
0
LINE
8
CentreLine
10
-185.47
20
-260.12
30
 98.05
11
-183.90
21
-263.55
31
102.87
0
LINE
8
CentreLine
10
-183.90
20
-263.55
30
102.87
11
-183.90
21
-275.10
31
102.87
0
LINE
8
CentreLine
10
-194.51
20
-257.27
30
 89.41
11
-191.51
21
-256.45
31
 85.13
0
LINE
8
CentreLine
10
-191.51
20
-256.45
30
 85.13
11
-191.51
21
-246.63
31
 85.13
0
LINE
8
CentreLine
10
-198.87
20
-256.98
30
 82.15
11
-199.44
21
-268.06
31
 98.57
0
LINE
8
CentreLine
10
-211.03
20
-254.45
30
 69.10
11
-209.43
21
-251.30
31
 66.64
0
LINE
8
CentreLine
10
-209.43
20
-251.30
30
 66.64
11
-206.36
21
-241.86
31
 59.03
0
LINE
8
CentreLine
10
-206.36
20
-241.86
30
 59.03
11
-205.24
21
-240.85
31
 56.11
0
LINE
8
CentreLine
10
-205.24
20
-240.85
30
 56.11
11
-200.64
21
-224.67
31
 45.29
0
LINE
8
CentreLine
10
-129.57
20
-126.15
30
 16.70
11
-129.57
21
-126.15
31
 27.10
0
LINE
8
CentreLine
10
-129.57
20
-126.15
30
 27.10
11
-136.62
21
-126.15
31
 24.26
0
LINE
8
CentreLine
10
-136.62
20
-126.15
30
 24.26
11
-133.57
21
-126.15
31
 18.52
0
LINE
8
CentreLine
10
-133.57
20
-126.15
30
 18.52
11
-125.48
21
-128.95
31
 19.37
0
LINE
8
CentreLine
10
-125.48
20
-128.95
30
 19.37
11
-124.20
21
-129.96
31
 17.61
0
LINE
8
CentreLine
10
-124.20
20
-129.96
30
 17.61
11
-119.31
21
-131.11
31
 18.47
0
LINE
8
CentreLine
10
-119.31
20
-131.11
30
 18.47
11
-123.67
21
-145.93
31
 19.72
0
LINE
8
CentreLine
10
-123.67
20
-145.93
30
 19.72
11
-128.33
21
-146.44
31
 18.73
0
LINE
8
CentreLine
10
-128.33
20
-146.44
30
 18.73
11
-132.72
21
-146.64
31
 22.82
0
LINE
8
CentreLine
10
-132.72
20
-146.64
30
 22.82
11
-132.72
21
-156.04
31
 22.82
0
LINE
8
CentreLine
10
-132.72
20
-156.04
30
 22.82
11
-136.42
21
-159.18
31
 27.73
0
LINE
8
CentreLine
10
-136.42
20
-159.18
30
 27.73
11
-138.59
21
-162.29
31
 27.58
0
LINE
8
CentreLine
10
-138.59
20
-162.29
30
 27.58
11
-140.65
21
-163.59
31
 26.66
0
LINE
8
CentreLine
10
-140.65
20
-163.59
30
 26.66
11
-142.88
21
-169.26
31
 22.46
0
LINE
8
CentreLine
10
-142.88
20
-169.26
30
 22.46
11
-146.82
21
-173.01
31
 21.62
0
LINE
8
CentreLine
10
-146.82
20
-173.01
30
 21.62
11
-146.82
21
-179.51
31
 22.77
0
LINE
8
CentreLine
10
-146.82
20
-179.51
30
 22.77
11
-154.79
21
-185.10
31
 25.05
0
LINE
8
CentreLine
10
-154.79
20
-185.10
30
 25.05
11
-154.79
21
-216.40
31
 25.05
0
LINE
8
CentreLine
10
-154.79
20
-216.40
30
 25.05
11
-162.39
21
-218.02
31
 25.72
0
LINE
8
CentreLine
10
-162.39
20
-218.02
30
 25.72
11
-163.75
21
-216.88
31
 12.74
0
LINE
8
CentreLine
10
-163.75
20
-216.88
30
 12.74
11
-160.43
21
-216.88
31
  9.42
0
LINE
8
CentreLine
10
-160.43
20
-216.88
30
  9.42
11
-159.05
21
-217.07
31
 11.12
0
LINE
8
CentreLine
10
-159.05
20
-217.07
30
 11.12
11
-155.97
21
-224.55
31
 19.15
0
LINE
8
CentreLine
10
-155.97
20
-224.55
30
 19.15
11
-156.92
21
-226.07
31
 22.27
0
LINE
8
CentreLine
10
-156.92
20
-226.07
30
 22.27
11
-157.20
21
-226.76
31
 25.49
0
LINE
8
CentreLine
10
-157.20
20
-226.76
30
 25.49
11
-160.07
21
-227.48
31
 26.71
0
LINE
8
CentreLine
10
-160.07
20
-227.48
30
 26.71
11
-160.91
21
-229.94
31
 28.21
0
LINE
8
CentreLine
10
-160.91
20
-229.94
30
 28.21
11
-167.97
21
-233.32
31
 26.58
0
LINE
8
CentreLine
10
-167.97
20
-233.32
30
 26.58
11
-167.34
21
-233.81
31
 28.63
0
LINE
8
CentreLine
10
-167.34
20
-233.81
30
 28.63
11
-169.49
21
-233.81
31
 29.46
0
LINE
8
CentreLine
10
-169.49
20
-233.81
30
 29.46
11
-169.72
21
-234.99
31
 31.65
0
LINE
8
CentreLine
10
-169.72
20
-234.99
30
 31.65
11
-173.04
21
-237.46
31
 37.17
0
LINE
8
CentreLine
10
-173.04
20
-237.46
30
 37.17
11
-179.92
21
-241.89
31
 39.81
0
LINE
8
CentreLine
10
-179.92
20
-241.89
30
 39.81
11
-179.92
21
-271.79
31
 39.81
0
LINE
8
CentreLine
10
-179.92
20
-271.79
30
 39.81
11
-184.60
21
-275.40
31
 37.63
0
LINE
8
CentreLine
10
-184.60
20
-275.40
30
 37.63
11
-184.72
21
-279.30
31
 44.39
0
LINE
8
CentreLine
10
-184.72
20
-279.30
30
 44.39
11
-185.99
21
-281.50
31
 49.15
0
LINE
8
CentreLine
10
-185.99
20
-281.50
30
 49.15
11
-188.60
21
-290.58
31
 50.10
0
LINE
8
CentreLine
10
-188.60
20
-290.58
30
 50.10
11
-188.60
21
-322.48
31
 50.10
0
LINE
8
CentreLine
10
-188.60
20
-322.48
30
 50.10
11
-195.65
21
-329.72
31
 55.60
0
LINE
8
CentreLine
10
-195.65
20
-329.72
30
 55.60
11
-195.65
21
-332.62
31
 55.60
0
LINE
8
CentreLine
10
-195.65
20
-332.62
30
 55.60
11
-198.17
21
-333.55
31
 56.94
0
LINE
8
CentreLine
10
-198.17
20
-333.55
30
 56.94
11
-207.97
21
-343.62
31
 60.51
0
LINE
8
CentreLine
10
-207.97
20
-343.62
30
 60.51
11
-212.60
21
-346.11
31
 61.16
0
LINE
8
CentreLine
10
-212.60
20
-346.11
30
 61.16
11
-218.26
21
-350.93
31
 62.16
0
LINE
8
CentreLine
10
-218.26
20
-350.93
30
 62.16
11
-230.15
21
-359.10
31
 66.26
0
LINE
8
CentreLine
10
-230.15
20
-359.10
30
 66.26
11
-233.05
21
-359.10
31
 69.70
0
LINE
8
CentreLine
10
-233.05
20
-359.10
30
 69.70
11
-233.05
21
-360.36
31
 73.82
0
LINE
8
CentreLine
10
-233.05
20
-360.36
30
 73.82
11
-238.31
21
-361.62
31
 76.62
0
LINE
8
CentreLine
10
-238.31
20
-361.62
30
 76.62
11
-239.61
21
-363.07
31
 83.96
0
LINE
8
CentreLine
10
-239.61
20
-363.07
30
 83.96
11
-237.44
21
-362.97
31
 89.34
0
LINE
8
CentreLine
10
-237.44
20
-362.97
30
 89.34
11
-243.04
21
-366.94
31
 92.84
0
LINE
8
CentreLine
10
-243.04
20
-366.94
30
 92.84
11
-247.63
21
-372.29
31
 95.94
0
LINE
8
CentreLine
10
-247.63
20
-372.29
30
 95.94
11
-252.35
21
-377.31
31
 98.89
0
LINE
8
CentreLine
10
-252.35
20
-377.31
30
 98.89
11
-254.88
21
-382.55
31
109.84
0
LINE
8
CentreLine
10
-254.88
20
-382.55
30
109.84
11
-263.39
21
-389.01
31
112.44
0
LINE
8
CentreLine
10
-263.39
20
-389.01
30
112.44
11
-270.11
21
-405.02
31
124.08
0
LINE
8
CentreLine
10
-270.11
20
-405.02
30
124.08
11
-274.96
21
-410.75
31
131.84
0
LINE
8
CentreLine
10
-274.96
20
-410.75
30
131.84
11
-283.08
21
-415.52
31
137.32
0
LINE
8
CentreLine
10
-283.08
20
-415.52
30
137.32
11
-280.90
21
-417.29
31
144.06
0
LINE
8
CentreLine
10
-280.90
20
-417.29
30
144.06
11
-287.83
21
-422.44
31
149.10
0
LINE
8
CentreLine
10
-287.83
20
-422.44
30
149.10
11
-292.24
21
-427.88
31
150.28
0
LINE
8
CentreLine
10
-292.24
20
-427.88
30
150.28
11
-297.41
21
-432.89
31
147.29
0
LINE
8
CentreLine
10
-297.41
20
-432.89
30
147.29
11
-304.17
21
-439.12
31
145.85
0
LINE
8
CentreLine
10
-304.17
20
-439.12
30
145.85
11
-305.80
21
-439.78
31
141.39
0
LINE
8
CentreLine
10
-305.80
20
-439.78
30
141.39
11
-309.05
21
-448.53
31
143.19
0
LINE
8
CentreLine
10
-232.54
20
-324.51
30
 99.54
11
-232.54
21
-326.31
31
 99.54
0
LINE
8
CentreLine
10
-232.54
20
-326.31
30
 99.54
11
-234.05
21
-332.15
31
100.49
0
LINE
8
CentreLine
10
-234.05
20
-332.15
30
100.49
11
-234.97
21
-335.44
31
101.26
0
LINE
8
CentreLine
10
-234.97
20
-335.44
30
101.26
11
-235.54
21
-338.67
31
103.72
0
LINE
8
CentreLine
10
-235.54
20
-338.67
30
103.72
11
-240.42
21
-345.79
31
104.76
0
LINE
8
CentreLine
10
-240.42
20
-345.79
30
104.76
11
-241.61
21
-346.69
31
105.94
0
LINE
8
CentreLine
10
-241.61
20
-346.69
30
105.94
11
-240.58
21
-349.48
31
108.14
0
LINE
8
CentreLine
10
-240.58
20
-349.48
30
108.14
11
-246.54
21
-358.75
31
113.14
0
LINE
8
CentreLine
10
-246.54
20
-358.75
30
113.14
11
-248.51
21
-361.59
31
112.14
0
LINE
8
CentreLine
10
-248.51
20
-361.59
30
112.14
11
-253.26
21
-364.22
31
117.60
0
LINE
8
CentreLine
10
-253.26
20
-364.22
30
117.60
11
-253.26
21
-363.78
31
119.24
0
LINE
8
CentreLine
10
-253.26
20
-363.78
30
119.24
11
-251.56
21
-364.55
31
122.43
0
LINE
8
CentreLine
10
-251.56
20
-364.55
30
122.43
11
-258.88
21
-374.13
31
127.01
0
LINE
8
CentreLine
10
-258.88
20
-374.13
30
127.01
11
-261.45
21
-375.11
31
130.82
0
LINE
8
CentreLine
10
-261.45
20
-375.11
30
130.82
11
-260.41
21
-376.36
31
133.28
0
LINE
8
CentreLine
10
-260.41
20
-376.36
30
133.28
11
-263.12
21
-377.04
31
133.09
0
LINE
8
CentreLine
10
-263.12
20
-377.04
30
133.09
11
-264.95
21
-377.87
31
136.55
0
LINE
8
CentreLine
10
-264.95
20
-377.87
30
136.55
11
-267.27
21
-379.02
31
141.99
0
LINE
8
CentreLine
10
-267.27
20
-379.02
30
141.99
11
-267.27
21
-379.79
31
144.89
0
LINE
8
CentreLine
10
-267.27
20
-379.79
30
144.89
11
-267.85
21
-379.70
31
146.59
0
LINE
8
CentreLine
10
-267.85
20
-379.70
30
146.59
11
-269.71
21
-380.92
31
147.19
0
LINE
8
CentreLine
10
-269.71
20
-380.92
30
147.19
11
-269.36
21
-380.64
31
151.17
0
LINE
8
CentreLine
10
-269.36
20
-380.64
30
151.17
11
-269.06
21
-381.89
31
153.31
0
LINE
8
CentreLine
10
-269.06
20
-381.89
30
153.31
11
-269.98
21
-383.27
31
154.90
0
LINE
8
CentreLine
10
-269.98
20
-383.27
30
154.90
11
-269.98
21
-423.27
31
154.90
0
LINE
8
CentreLine
10
-269.98
20
-423.27
30
154.90
11
-268.18
21
-423.27
31
150.24
0
LINE
8
CentreLine
10
-268.18
20
-423.27
30
150.24
11
-268.18
21
-433.27
31
150.24
0
LINE
8
CentreLine
10
-268.18
20
-433.27
30
150.24
11
-266.41
21
-433.73
31
145.37
0
LINE
8
CentreLine
10
-266.41
20
-433.73
30
145.37
11
-264.11
21
-440.70
31
139.04
0
LINE
8
CentreLine
10
-264.11
20
-440.70
30
139.04
11
-264.11
21
-456.20
31
139.04
0
LINE
8
CentreLine
10
-264.11
20
-456.20
30
139.04
11
-274.33
21
-462.75
31
144.94
0
LINE
8
CentreLine
10
-274.33
20
-462.75
30
144.94
11
-280.43
21
-467.72
31
145.69
0
LINE
8
CentreLine
10
-280.43
20
-467.72
30
145.69
11
-282.56
21
-468.19
31
143.63
0
LINE
8
CentreLine
10
-282.56
20
-468.19
30
143.63
11
-284.42
21
-468.55
31
143.73
0
LINE
8
CentreLine
10
-284.42
20
-468.55
30
143.73
11
-286.58
21
-468.80
31
142.72
0
LINE
8
CentreLine
10
-286.58
20
-468.80
30
142.72
11
-288.83
21
-470.29
31
145.40
0
LINE
8
CentreLine
10
-288.83
20
-470.29
30
145.40
11
-290.83
21
-473.37
31
156.72
0
LINE
8
CentreLine
10
-290.83
20
-473.37
30
156.72
11
-295.62
21
-481.40
31
169.20
0
LINE
8
CentreLine
10
114.76
20
231.90
30
-103.82
11
119.89
21
311.40
31
-106.07
0
LINE
8
CentreLine
10
119.89
20
311.40
30
-106.07
11
124.64
21
312.53
31
-104.82
0
LINE
8
CentreLine
10
124.64
20
312.53
30
-104.82
11
125.39
21
324.53
31
-104.57
0
LINE
8
CentreLine
10
125.39
20
324.53
30
-104.57
11
128.76
21
323.53
31
-101.32
0
LINE
8
CentreLine
10
128.76
20
323.53
30
-101.32
11
131.26
21
326.53
31
-103.32
0
LINE
8
CentreLine
10
131.26
20
326.53
30
-103.32
11
133.38
21
326.53
31
-101.57
0
LINE
8
CentreLine
10
133.38
20
326.53
30
-101.57
11
133.88
21
337.66
31
-101.20
0
LINE
8
CentreLine
10
133.88
20
337.66
30
-101.20
11
141.39
21
336.91
31
-96.20
0
LINE
8
CentreLine
10
141.39
20
336.91
30
-96.20
11
142.39
21
355.91
31
-96.45
0
LINE
8
CentreLine
10
142.39
20
355.91
30
-96.45
11
146.26
21
356.28
31
-93.45
0
LINE
8
CentreLine
10
146.26
20
356.28
30
-93.45
11
148.26
21
357.03
31
-90.70
0
LINE
8
CentreLine
10
148.26
20
357.03
30
-90.70
11
151.26
21
357.28
31
-91.20
0
LINE
8
CentreLine
10
151.26
20
357.28
30
-91.20
11
152.13
21
370.28
31
-91.45
0
LINE
8
CentreLine
10
152.13
20
370.28
30
-91.45
11
152.01
21
398.78
31
-94.57
0
LINE
8
CentreLine
10
152.01
20
398.78
30
-94.57
11
159.51
21
410.28
31
-99.70
0
LINE
8
CentreLine
10
159.51
20
410.28
30
-99.70
11
159.38
21
413.03
31
-102.70
0
LINE
8
CentreLine
10
159.38
20
413.03
30
-102.70
11
157.51
21
414.15
31
-106.95
0
LINE
8
CentreLine
10
157.51
20
414.15
30
-106.95
11
159.01
21
414.65
31
-108.32
0
LINE
8
CentreLine
10
159.01
20
414.65
30
-108.32
11
158.01
21
415.90
31
-114.57
0
LINE
8
CentreLine
10
158.01
20
415.90
30
-114.57
11
159.26
21
418.78
31
-117.70
0
LINE
8
CentreLine
10
159.26
20
418.78
30
-117.70
11
163.63
21
423.03
31
-119.57
0
LINE
8
CentreLine
10
163.63
20
423.03
30
-119.57
11
167.76
21
420.28
31
-116.57
0
LINE
8
CentreLine
10
167.76
20
420.28
30
-116.57
11
167.76
21
424.78
31
-116.57
0
LINE
8
CentreLine
10
167.76
20
424.78
30
-116.57
11
169.76
21
425.03
31
-115.57
0
LINE
8
CentreLine
10
169.76
20
425.03
30
-115.57
11
174.01
21
425.90
31
-115.82
0
LINE
8
CentreLine
10
174.01
20
425.90
30
-115.82
11
175.63
21
429.65
31
-122.32
0
LINE
8
CentreLine
10
175.63
20
429.65
30
-122.32
11
177.38
21
433.65
31
-129.07
0
LINE
8
CentreLine
10
177.38
20
433.65
30
-129.07
11
178.76
21
432.40
31
-131.32
0
LINE
8
CentreLine
10
178.76
20
432.40
30
-131.32
11
183.51
21
434.90
31
-132.82
0
LINE
8
CentreLine
10
183.51
20
434.90
30
-132.82
11
185.63
21
437.78
31
-129.32
0
LINE
8
CentreLine
10
185.63
20
437.78
30
-129.32
11
186.13
21
445.03
31
-126.32
0
LINE
8
CentreLine
10
186.13
20
445.03
30
-126.32
11
187.26
21
445.28
31
-126.57
0
LINE
8
CentreLine
10
187.26
20
445.28
30
-126.57
11
188.76
21
448.03
31
-130.20
0
LINE
8
CentreLine
10
188.76
20
448.03
30
-130.20
11
189.76
21
446.78
31
-131.70
0
LINE
8
CentreLine
10
189.76
20
446.78
30
-131.70
11
194.63
21
449.78
31
-130.45
0
LINE
8
CentreLine
10
194.63
20
449.78
30
-130.45
11
205.38
21
458.78
31
-140.70
0
LINE
8
CentreLine
10
205.38
20
458.78
30
-140.70
11
202.38
21
463.65
31
-152.32
0
LINE
8
CentreLine
10
202.38
20
463.65
30
-152.32
11
204.38
21
466.78
31
-154.95
0
LINE
8
CentreLine
10
204.38
20
466.78
30
-154.95
11
204.13
21
472.28
31
-158.82
0
LINE
8
CentreLine
10
205.38
20
458.78
30
-140.70
11
208.13
21
461.03
31
-133.95
0
LINE
8
CentreLine
10
208.13
20
461.03
30
-133.95
11
221.13
21
481.40
31
-139.20
0
LINE
8
CentreLine
10
131.26
20
326.53
30
-103.32
11
129.14
21
335.28
31
-107.82
0
LINE
8
CentreLine
10
129.14
20
335.28
30
-107.82
11
128.39
21
335.16
31
-111.07
0
LINE
8
CentreLine
10
128.39
20
335.16
30
-111.07
11
125.64
21
328.78
31
-112.70
0
LINE
8
CentreLine
10
152.13
20
370.28
30
-91.45
11
148.66
21
369.78
31
-92.94
0
LINE
8
CentreLine
10
148.66
20
369.78
30
-92.94
11
148.42
21
366.87
31
-93.22
0
LINE
8
CentreLine
10
148.42
20
366.87
30
-93.22
11
148.04
21
366.87
31
-95.22
0
LINE
8
CentreLine
10
148.04
20
366.87
30
-95.22
11
148.26
21
361.65
31
-96.07
0
LINE
8
CentreLine
10
148.26
20
361.65
30
-96.07
11
148.01
21
351.14
31
-90.82
0
LINE
8
CentreLine
10
148.01
20
351.14
30
-90.82
11
140.52
21
343.47
31
-92.74
0
LINE
8
CentreLine
10
114.76
20
231.90
30
-103.82
11
118.01
21
230.40
31
-102.45
0
LINE
8
CentreLine
10
118.01
20
230.40
30
-102.45
11
120.63
21
216.15
31
-109.82
0
LINE
8
CentreLine
10
120.63
20
216.15
30
-109.82
11
115.38
21
213.28
31
-112.70
0
LINE
8
CentreLine
10
115.38
20
213.28
30
-112.70
11
113.13
21
214.77
31
-113.95
0
LINE
8
CentreLine
10
113.13
20
214.77
30
-113.95
11
113.38
21
217.52
31
-113.20
0
LINE
8
CentreLine
10
113.38
20
217.52
30
-113.20
11
111.13
21
216.28
31
-111.20
0
LINE
8
CentreLine
10
111.13
20
216.28
30
-111.20
11
111.13
21
208.03
31
-111.20
0
LINE
8
CentreLine
10
111.13
20
208.03
30
-111.20
11
114.13
21
208.03
31
-110.70
0
LINE
8
CentreLine
10
114.13
20
208.03
30
-110.70
11
113.63
21
205.03
31
-109.95
0
LINE
8
CentreLine
10
113.63
20
205.03
30
-109.95
11
113.63
21
195.03
31
-109.20
0
LINE
8
CentreLine
10
113.63
20
195.03
30
-109.20
11
114.63
21
191.28
31
-102.45
0
LINE
8
CentreLine
10
114.63
20
191.28
30
-102.45
11
116.38
21
191.28
31
-100.95
0
LINE
8
CentreLine
10
116.38
20
191.28
30
-100.95
11
116.13
21
191.28
31
-99.70
0
LINE
8
CentreLine
10
116.13
20
191.28
30
-99.70
11
117.38
21
189.53
31
-97.45
0
LINE
8
CentreLine
10
117.38
20
189.53
30
-97.45
11
121.13
21
188.53
31
-99.95
0
LINE
8
CentreLine
10
121.13
20
188.53
30
-99.95
11
123.88
21
187.52
31
-96.45
0
LINE
8
CentreLine
10
123.88
20
187.52
30
-96.45
11
121.13
21
185.52
31
-94.20
0
LINE
8
CentreLine
10
121.13
20
185.52
30
-94.20
11
118.13
21
175.02
31
-91.45
0
LINE
8
CentreLine
10
118.13
20
175.02
30
-91.45
11
110.63
21
173.02
31
-93.20
0
LINE
8
CentreLine
10
110.63
20
173.02
30
-93.20
11
107.38
21
172.77
31
-89.70
0
LINE
8
CentreLine
10
107.38
20
172.77
30
-89.70
11
108.13
21
171.27
31
-86.95
0
LINE
8
CentreLine
10
108.13
20
171.27
30
-86.95
11
109.13
21
157.77
31
-84.95
0
LINE
8
CentreLine
10
109.13
20
157.77
30
-84.95
11
110.63
21
148.27
31
-80.70
0
LINE
8
CentreLine
10
110.63
20
148.27
30
-80.70
11
112.38
21
149.52
31
-78.45
0
LINE
8
CentreLine
10
112.38
20
149.52
30
-78.45
11
115.63
21
146.27
31
-74.70
0
LINE
8
CentreLine
10
115.63
20
146.27
30
-74.70
11
117.63
21
143.52
31
-72.70
0
LINE
8
CentreLine
10
117.63
20
143.52
30
-72.70
11
117.63
21
135.77
31
-72.70
0
LINE
8
CentreLine
10
102.24
20
295.90
30
-23.12
11
105.14
21
296.79
31
-20.60
0
LINE
8
CentreLine
10
105.14
20
296.79
30
-20.60
11
100.23
21
271.20
31
-15.14
0
LINE
8
CentreLine
10
100.23
20
271.20
30
-15.14
11
 96.98
21
269.24
31
-18.75
0
LINE
8
CentreLine
10
 96.98
20
269.24
30
-18.75
11
 96.98
21
243.42
31
-18.75
0
LINE
8
CentreLine
10
 96.98
20
243.42
30
-18.75
11
 89.70
21
244.20
31
-20.57
0
LINE
8
CentreLine
10
 89.70
20
244.20
30
-20.57
11
 85.50
21
238.20
31
-20.71
0
LINE
8
CentreLine
10
 85.50
20
238.20
30
-20.71
11
 85.50
21
227.33
31
-20.71
0
LINE
8
CentreLine
10
 85.50
20
227.33
30
-20.71
11
 85.50
21
196.70
31
-20.71
0
LINE
8
CentreLine
10
 85.50
20
196.70
30
-20.71
11
 85.50
21
173.55
31
-20.71
0
LINE
8
CentreLine
10
 85.50
20
173.55
30
-20.71
11
 85.50
21
151.77
31
-20.71
0
LINE
8
CentreLine
10
 85.50
20
151.77
30
-20.71
11
 85.45
21
151.10
31
-18.02
0
LINE
8
CentreLine
10
 85.45
20
151.10
30
-18.02
11
 88.17
21
149.90
31
-17.29
0
LINE
8
CentreLine
10
 88.17
20
149.90
30
-17.29
11
 89.37
21
148.88
31
-17.10
0
LINE
8
CentreLine
10
 89.37
20
148.88
30
-17.10
11
 92.44
21
147.88
31
-15.98
0
LINE
8
CentreLine
10
 92.44
20
147.88
30
-15.98
11
 94.49
21
147.32
31
-14.33
0
LINE
8
CentreLine
10
 94.49
20
147.32
30
-14.33
11
 93.94
21
146.47
31
-11.77
0
LINE
8
CentreLine
10
 93.94
20
146.47
30
-11.77
11
 93.98
21
145.62
31
 -9.64
0
LINE
8
CentreLine
10
 93.98
20
145.62
30
 -9.64
11
 93.33
21
145.00
31
 -6.84
0
LINE
8
CentreLine
10
 93.33
20
145.00
30
 -6.84
11
 91.66
21
147.13
31
 -6.46
0
LINE
8
CentreLine
10
 91.66
20
147.13
30
 -6.46
11
 87.13
21
138.87
31
 -8.47
0
LINE
8
CentreLine
10
 87.13
20
138.87
30
 -8.47
11
 84.65
21
135.77
31
 -5.72
0
LINE
8
CentreLine
10
 84.65
20
135.77
30
 -5.72
11
 81.60
21
134.99
31
 -0.21
0
LINE
8
CentreLine
10
 81.60
20
134.99
30
 -0.21
11
 73.00
21
132.68
31
 -0.81
0
LINE
8
CentreLine
10
 73.00
20
132.68
30
 -0.81
11
 73.00
21
107.94
31
 -0.81
0
LINE
8
CentreLine
10
 73.00
20
107.94
30
 -0.81
11
 76.16
21
113.79
31
 -7.90
0
LINE
8
CentreLine
10
 76.16
20
113.79
30
 -7.90
11
 75.05
21
110.18
31
 -5.63
0
LINE
8
CentreLine
10
 75.05
20
110.18
30
 -5.63
11
 77.08
21
114.73
31
-10.66
0
LINE
8
CentreLine
10
 77.08
20
114.73
30
-10.66
11
 80.60
21
116.54
31
-13.40
0
LINE
8
CentreLine
10
 80.60
20
116.54
30
-13.40
11
 81.31
21
111.25
31
-18.46
0
LINE
8
CentreLine
10
 81.31
20
111.25
30
-18.46
11
 79.52
21
108.56
31
-21.55
0
LINE
8
CentreLine
10
 75.05
20
110.18
30
 -5.63
11
 76.07
21
109.36
31
 -3.87
0
LINE
8
CentreLine
10
 76.07
20
109.36
30
 -3.87
11
 72.90
21
100.32
31
  1.61
0
LINE
8
CentreLine
10
 72.90
20
100.32
30
  1.61
11
 72.90
21
 64.62
31
  1.61
0
LINE
8
CentreLine
10
 72.90
20
 64.62
30
  1.61
11
 70.94
21
 62.21
31
 -2.06
0
LINE
8
CentreLine
10
 70.94
20
 62.21
30
 -2.06
11
 70.94
21
 60.60
31
 -2.06
0
LINE
8
CentreLine
10
 70.94
20
 60.60
30
 -2.06
11
 70.33
21
 55.43
31
 -4.06
0
LINE
8
CentreLine
10
 70.33
20
 55.43
30
 -4.06
11
 70.33
21
 53.33
31
 -4.06
0
LINE
8
CentreLine
10
 70.33
20
 53.33
30
 -4.06
11
 71.58
21
 53.33
31
 -4.06
0
LINE
8
CentreLine
10
 71.58
20
 53.33
30
 -4.06
11
 71.58
21
 14.53
31
 -4.06
0
LINE
8
CentreLine
10
 71.58
20
 14.53
30
 -4.06
11
 76.25
21
  8.12
31
 10.31
0
LINE
8
CentreLine
10
 76.25
20
  8.12
30
 10.31
11
 76.25
21
 -6.65
31
 10.31
0
LINE
8
CentreLine
10
 76.25
20
 -6.65
30
 10.31
11
 67.96
21
 -6.65
31
 17.52
0
LINE
8
CentreLine
10
 67.96
20
 -6.65
30
 17.52
11
 67.17
21
 -8.61
31
 16.15
0
LINE
8
CentreLine
10
 67.17
20
 -8.61
30
 16.15
11
 67.17
21
-18.29
31
 16.15
0
LINE
8
CentreLine
10
 67.17
20
-18.29
30
 16.15
11
 68.00
21
-16.23
31
 22.08
0
LINE
8
CentreLine
10
 68.00
20
-16.23
30
 22.08
11
 73.50
21
-22.94
31
 20.91
0
LINE
8
CentreLine
10
 76.25
20
 -6.65
30
 10.31
11
 76.25
21
-13.27
31
 10.31
0
LINE
8
CentreLine
10
-183.90
20
-263.55
30
102.87
11
-185.82
21
-275.51
31
105.72
0
LINE
8
CentreLine
10
-185.82
20
-275.51
30
105.72
11
-186.59
21
-276.43
31
108.81
0
LINE
8
CentreLine
10
-186.59
20
-276.43
30
108.81
11
-186.59
21
-289.25
31
108.81
0
LINE
8
CentreLine
10
-186.59
20
-289.25
30
108.81
11
-190.17
21
-289.31
31
109.06
0
LINE
8
CentreLine
10
-190.17
20
-289.31
30
109.06
11
-184.34
21
-287.65
31
102.80
0
LINE
8
CentreLine
10
-184.34
20
-287.65
30
102.80
11
-183.44
21
-287.35
31
111.37
0
LINE
8
CentreLine
10
-183.44
20
-287.35
30
111.37
11
-170.58
21
-288.31
31
116.31
0
LINE
8
CentreLine
10
-170.58
20
-288.31
30
116.31
11
-170.42
21
-287.99
31
107.16
0
LINE
8
CentreLine
10
-170.42
20
-287.99
30
107.16
11
-168.83
21
-289.36
31
100.28
0
LINE
8
CentreLine
10
-168.83
20
-289.36
30
100.28
11
-171.83
21
-285.64
31
 91.56
0
LINE
8
CentreLine
10
-171.83
20
-285.64
30
 91.56
11
-175.41
21
-286.04
31
 90.40
0
LINE
8
CentreLine
10
-175.41
20
-286.04
30
 90.40
11
-181.55
21
-286.47
31
 89.97
0
LINE
8
CentreLine
10
-181.55
20
-286.47
30
 89.97
11
-181.55
21
-286.27
31
 89.97
0
LINE
8
CentreLine
10
-181.55
20
-286.27
30
 89.97
11
-180.77
21
-285.74
31
 94.90
0
LINE
8
CentreLine
10
-180.77
20
-285.74
30
 94.90
11
-182.59
21
-285.68
31
 94.74
0
LINE
8
CentreLine
10
-182.59
20
-285.68
30
 94.74
11
-180.61
21
-280.39
31
 86.16
0
LINE
8
CentreLine
10
-180.61
20
-280.39
30
 86.16
11
-185.30
21
-278.20
31
 80.77
0
LINE
8
CentreLine
10
-185.30
20
-278.20
30
 80.77
11
-186.28
21
-276.53
31
 75.72
0
LINE
8
CentreLine
10
-186.28
20
-276.53
30
 75.72
11
-188.62
21
-276.35
31
 73.12
0
LINE
8
CentreLine
10
-188.62
20
-276.35
30
 73.12
11
-188.10
21
-274.49
31
 70.19
0
LINE
8
CentreLine
10
-188.10
20
-274.49
30
 70.19
11
-189.64
21
-274.57
31
 65.98
0
LINE
8
CentreLine
10
-189.64
20
-274.57
30
 65.98
11
-188.30
21
-272.09
31
 59.68
0
LINE
8
CentreLine
10
-188.30
20
-272.09
30
 59.68
11
-185.36
21
-269.40
31
 52.41
0
LINE
8
CentreLine
10
-185.36
20
-269.40
30
 52.41
11
-181.14
21
-271.25
31
 44.79
0
LINE
8
CentreLine
10
-190.17
20
-289.31
30
109.06
11
-191.94
21
-287.22
31
114.84
0
LINE
8
CentreLine
10
-191.94
20
-287.22
30
114.84
11
-195.61
21
-289.92
31
123.50
0
LINE
8
CentreLine
10
-195.61
20
-289.92
30
123.50
11
-193.04
21
-290.78
31
139.72
0
LINE
8
CentreLine
10
-193.04
20
-290.78
30
139.72
11
-196.10
21
-296.44
31
146.28
0
LINE
8
CentreLine
10
-196.10
20
-296.44
30
146.28
11
-197.65
21
-306.33
31
149.76
0
LINE
8
CentreLine
10
-197.65
20
-306.33
30
149.76
11
-200.03
21
-320.16
31
150.26
0
LINE
8
CentreLine
10
-200.03
20
-320.16
30
150.26
11
-201.52
21
-335.35
31
159.64
0
LINE
8
CentreLine
10
-201.52
20
-335.35
30
159.64
11
-204.02
21
-335.91
31
175.45
0
LINE
8
CentreLine
10
-180.77
20
-285.74
30
 94.90
11
-180.36
21
-287.41
31
 87.04
0
LINE
8
CentreLine
10
-180.36
20
-287.41
30
 87.04
11
-181.63
21
-294.78
31
 85.35
0
LINE
8
CentreLine
10
-181.63
20
-294.78
30
 85.35
11
-184.31
21
-296.77
31
 89.48
0
LINE
8
CentreLine
10
-184.31
20
-296.77
30
 89.48
11
-186.80
21
-308.85
31
 91.89
0
LINE
8
CentreLine
10
-186.80
20
-308.85
30
 91.89
11
-192.45
21
-311.29
31
 94.05
0
LINE
8
CentreLine
10
-192.45
20
-311.29
30
 94.05
11
-192.74
21
-312.71
31
 98.16
0
LINE
8
CentreLine
10
-192.74
20
-312.71
30
 98.16
11
-194.34
21
-313.60
31
 99.82
0
LINE
8
CentreLine
10
-194.34
20
-313.60
30
 99.82
11
-192.12
21
-314.40
31
105.05
0
LINE
8
CentreLine
10
-192.12
20
-314.40
30
105.05
11
-188.62
21
-315.92
31
106.92
0
LINE
8
CentreLine
10
-188.62
20
-315.92
30
106.92
11
-189.19
21
-316.01
31
109.40
0
LINE
8
CentreLine
10
-189.19
20
-316.01
30
109.40
11
-185.06
21
-317.77
31
109.83
0
LINE
8
CentreLine
10
-185.06
20
-317.77
30
109.83
11
-183.42
21
-317.40
31
111.12
0
LINE
8
CentreLine
10
-183.42
20
-317.40
30
111.12
11
-180.74
21
-318.99
31
109.03
0
LINE
8
CentreLine
10
-180.74
20
-318.99
30
109.03
11
-182.46
21
-320.98
31
109.21
0
LINE
8
CentreLine
10
-182.46
20
-320.98
30
109.21
11
-180.58
21
-320.98
31
110.17
0
LINE
8
CentreLine
10
-180.58
20
-320.98
30
110.17
11
-180.58
21
-330.63
31
110.17
0
LINE
8
CentreLine
10
-180.58
20
-330.63
30
110.17
11
-183.13
21
-330.26
31
112.54
0
LINE
8
CentreLine
10
-183.13
20
-330.26
30
112.54
11
-185.59
21
-331.83
31
118.33
0
LINE
8
CentreLine
10
-185.59
20
-331.83
30
118.33
11
-183.55
21
-327.71
31
124.60
0
LINE
8
CentreLine
10
-183.55
20
-327.71
30
124.60
11
-186.99
21
-329.17
31
133.13
0
LINE
8
CentreLine
10
-186.99
20
-329.17
30
133.13
11
-188.63
21
-328.22
31
138.85
0
LINE
8
CentreLine
10
-188.63
20
-328.22
30
138.85
11
-188.84
21
-328.12
31
144.77
0
LINE
8
CentreLine
10
-188.84
20
-328.12
30
144.77
11
-189.77
21
-333.79
31
147.63
0
LINE
8
CentreLine
10
-189.77
20
-333.79
30
147.63
11
-192.96
21
-336.27
31
152.54
0
LINE
8
CentreLine
10
-192.96
20
-336.27
30
152.54
11
-192.52
21
-336.94
31
158.87
0
LINE
8
CentreLine
10
-192.52
20
-336.94
30
158.87
11
-192.52
21
-342.63
31
158.87
0
LINE
8
CentreLine
10
-192.52
20
-342.63
30
158.87
11
-193.67
21
-345.56
31
156.61
0
LINE
8
CentreLine
10
-193.67
20
-345.56
30
156.61
11
-193.67
21
-374.86
31
156.61
0
LINE
8
CentreLine
10
-193.67
20
-374.86
30
156.61
11
-193.34
21
-374.18
31
159.77
0
LINE
8
CentreLine
10
-193.34
20
-374.18
30
159.77
11
-192.82
21
-374.34
31
162.74
0
LINE
8
CentreLine
10
-192.82
20
-374.34
30
162.74
11
-193.50
21
-377.25
31
163.84
0
LINE
8
CentreLine
10
-193.50
20
-377.25
30
163.84
11
-191.69
21
-377.25
31
166.52
0
LINE
8
CentreLine
10
-191.69
20
-377.25
30
166.52
11
-193.00
21
-379.85
31
169.09
0
LINE
8
CentreLine
10
-193.00
20
-379.85
30
169.09
11
-192.36
21
-382.84
31
173.15
0
LINE
8
CentreLine
10
-192.36
20
-382.84
30
173.15
11
-192.94
21
-382.98
31
175.91
0
LINE
8
CentreLine
10
-192.94
20
-382.98
30
175.91
11
-192.94
21
-387.75
31
175.91
0
LINE
8
CentreLine
10
-192.94
20
-387.75
30
175.91
11
-192.88
21
-386.13
31
177.84
0
LINE
8
CentreLine
10
-192.88
20
-386.13
30
177.84
11
-190.97
21
-386.46
31
179.12
0
LINE
8
CentreLine
10
-190.97
20
-386.46
30
179.12
11
-189.21
21
-385.30
31
177.70
0
LINE
8
CentreLine
10
-189.21
20
-385.30
30
177.70
11
-190.13
21
-385.27
31
176.17
0
LINE
8
CentreLine
10
-190.13
20
-385.27
30
176.17
11
-190.25
21
-386.73
31
174.38
0
LINE
8
CentreLine
10
-190.25
20
-386.73
30
174.38
11
-186.61
21
-388.16
31
170.47
0
LINE
8
CentreLine
10
-186.61
20
-388.16
30
170.47
11
-183.95
21
-386.48
31
172.41
0
LINE
8
CentreLine
10
-183.95
20
-386.48
30
172.41
11
-179.49
21
-383.42
31
170.87
0
LINE
8
CentreLine
10
-179.49
20
-383.42
30
170.87
11
-179.12
21
-383.78
31
167.42
0
LINE
8
CentreLine
10
-179.12
20
-383.78
30
167.42
11
-177.99
21
-384.87
31
162.85
0
LINE
8
CentreLine
10
-177.99
20
-384.87
30
162.85
11
-179.10
21
-384.63
31
158.39
0
LINE
8
CentreLine
10
-179.10
20
-384.63
30
158.39
11
-177.36
21
-380.32
31
159.57
0
LINE
8
CentreLine
10
-177.36
20
-380.32
30
159.57
11
-174.00
21
-379.72
31
151.66
0
LINE
8
CentreLine
10
-174.00
20
-379.72
30
151.66
11
-170.88
21
-377.58
31
156.29
0
LINE
8
CentreLine
10
-170.88
20
-377.58
30
156.29
11
-166.00
21
-374.75
31
155.78
0
LINE
8
CentreLine
10
-166.00
20
-374.75
30
155.78
11
-161.36
21
-372.64
31
154.87
0
LINE
8
CentreLine
10
-161.36
20
-372.64
30
154.87
11
-158.59
21
-372.37
31
153.40
0
LINE
8
CentreLine
10
-158.59
20
-372.37
30
153.40
11
-150.18
21
-367.87
31
152.52
0
LINE
8
CentreLine
10
-150.18
20
-367.87
30
152.52
11
-147.06
21
-368.77
31
146.90
0
LINE
8
CentreLine
10
-147.06
20
-368.77
30
146.90
11
-142.45
21
-366.30
31
152.39
0
LINE
8
CentreLine
10
-142.45
20
-366.30
30
152.39
11
-142.96
21
-365.34
31
157.32
0
LINE
8
CentreLine
10
-142.96
20
-365.34
30
157.32
11
-135.31
21
-361.90
31
159.96
0
LINE
8
CentreLine
10
-135.31
20
-361.90
30
159.96
11
-130.73
21
-358.81
31
165.62
0
LINE
8
CentreLine
10
-130.73
20
-358.81
30
165.62
11
-125.39
21
-357.67
31
165.15
0
LINE
8
CentreLine
10
-125.39
20
-357.67
30
165.15
11
-119.70
21
-355.19
31
172.44
0
LINE
8
CentreLine
10
-192.88
20
-386.13
30
177.84
11
-192.99
21
-387.17
31
184.34
0
LINE
8
CentreLine
10
-192.99
20
-387.17
30
184.34
11
-192.99
21
-394.99
31
184.34
0
LINE
8
CentreLine
10
-192.99
20
-394.99
30
184.34
11
-193.76
21
-393.18
31
189.84
0
LINE
8
CentreLine
10
-193.76
20
-393.18
30
189.84
11
-197.93
21
-393.42
31
202.68
0
LINE
8
CentreLine
10
-197.93
20
-393.42
30
202.68
11
-202.59
21
-397.83
31
211.43
0
LINE
8
CentreLine
10
-202.59
20
-397.83
30
211.43
11
-201.72
21
-417.24
31
211.96
0
LINE
8
CentreLine
10
-201.72
20
-417.24
30
211.96
11
-205.61
21
-426.57
31
199.21
0
LINE
8
CentreLine
10
-205.61
20
-426.57
30
199.21
11
-213.50
21
-432.93
31
201.18
0
LINE
8
CentreLine
10
-213.50
20
-432.93
30
201.18
11
-214.75
21
-436.51
31
186.87
0
LINE
8
CentreLine
10
-214.75
20
-436.51
30
186.87
11
-217.63
21
-437.47
31
185.15
0
LINE
8
CentreLine
10
-217.63
20
-437.47
30
185.15
11
-218.28
21
-438.44
31
166.58
0
LINE
8
CentreLine
10
-218.28
20
-438.44
30
166.58
11
-218.88
21
-443.70
31
162.81
0
LINE
8
CentreLine
10
-218.88
20
-443.70
30
162.81
11
-222.60
21
-449.50
31
167.25
0
LINE
8
CentreLine
10
-222.60
20
-449.50
30
167.25
11
-221.79
21
-451.18
31
161.44
0
LINE
8
CentreLine
10
-221.79
20
-451.18
30
161.44
11
-225.78
21
-451.95
31
163.14
0
LINE
8
CentreLine
10
-225.78
20
-451.95
30
163.14
11
-228.63
21
-455.57
31
161.81
0
LINE
8
CentreLine
10
-228.63
20
-455.57
30
161.81
11
-235.78
21
-466.36
31
166.28
0
LINE
8
CentreLine
10
-235.78
20
-466.36
30
166.28
11
-240.88
21
-469.41
31
167.64
0
LINE
8
CentreLine
10
-240.88
20
-469.41
30
167.64
11
-241.65
21
-472.17
31
163.30
0
LINE
8
CentreLine
10
-241.65
20
-472.17
30
163.30
11
-243.34
21
-474.18
31
160.98
0
LINE
8
CentreLine
10
-243.34
20
-474.18
30
160.98
11
-244.10
21
-475.93
31
159.90
0
LINE
8
CentreLine
10
-244.10
20
-475.93
30
159.90
11
-247.51
21
-479.38
31
163.43
000
ENDSEC
000
EOF
