0
SECTION
2
HEADER
9
$EXTMIN
10
-8.775000
20
-18.670000
30
-23.155000
9
$EXTMAX
10
8.775000
20
18.670000
30
23.155000
9
$PDMODE
70
3
9
$PDSIZE
40
  0.80
0
ENDSEC
0
SECTION
2
TABLES
0
TABLE
2
LTYPE
70
10
0
LTYPE
2
CONTINUOUS
70
64
3
Continuous
72
65
73
0
40
0.0
0
LTYPE
2
DASHED
70
64
3
Dashed
72
65
73
2
40
2.5
49
1.25
49
-1.25
0
ENDTAB
0
TABLE
2
LAYER
70
10
0
LAYER
2
CentreLine
70
64
62
5
6
CONTINUOUS
0
LAYER
2
Stations
70
64
62
7
6
CONTINUOUS
0
LAYER
2
Labels
70
64
62
7
6
CONTINUOUS
0
LAYER
2
Surface
70
64
62
5
6
DASHED
0
LAYER
2
SurfaceStations
70
64
62
7
6
CONTINUOUS
0
LAYER
2
SurfaceLabels
70
64
62
7
6
CONTINUOUS
0
ENDTAB
0
ENDSEC
0
SECTION
2
ENTITIES
0
LINE
8
CentreLine
10
  0.66
20
 18.67
30
 23.16
11
  0.66
21
 18.67
31
 12.45
0
LINE
8
CentreLine
10
  0.66
20
 18.67
30
 12.45
11
  3.05
21
 16.66
31
 12.45
0
LINE
8
CentreLine
10
  3.05
20
 16.66
30
 12.45
11
  3.05
21
 16.66
31
 -7.96
0
LINE
8
CentreLine
10
  3.05
20
 16.66
30
 -7.96
11
  1.45
21
 17.79
31
 -9.23
0
LINE
8
CentreLine
10
  1.45
20
 17.79
30
 -9.23
11
  1.45
21
 17.79
31
-13.55
0
LINE
8
CentreLine
10
  3.05
20
 16.66
30
 -7.96
11
 -0.23
21
 17.01
31
 -8.72
0
LINE
8
CentreLine
10
 -0.23
20
 17.01
30
 -8.72
11
 -0.23
21
 17.01
31
-14.89
0
LINE
8
CentreLine
10
  3.05
20
 16.66
30
 -7.96
11
 -8.77
21
 12.82
31
 -4.86
0
LINE
8
CentreLine
10
  3.05
20
 16.66
30
 -7.96
11
  1.08
21
  8.13
31
 -3.50
0
LINE
8
CentreLine
10
  1.08
20
  8.13
30
 -3.50
11
  1.82
21
  4.93
31
 -4.50
0
LINE
8
CentreLine
10
  1.82
20
  4.93
30
 -4.50
11
  1.82
21
  4.93
31
 -0.79
0
LINE
8
CentreLine
10
  1.82
20
  4.93
30
 -0.79
11
  2.76
21
  0.50
31
  0.69
0
LINE
8
CentreLine
10
  2.76
20
  0.50
30
  0.69
11
  4.12
21
  0.62
31
  1.92
0
LINE
8
CentreLine
10
  4.12
20
  0.62
30
  1.92
11
  3.80
21
 -0.65
31
  1.76
0
LINE
8
CentreLine
10
  3.80
20
 -0.65
30
  1.76
11
  3.70
21
 -6.38
31
  1.05
0
LINE
8
CentreLine
10
  3.70
20
 -6.38
30
  1.05
11
  2.44
21
 -7.56
31
  0.87
0
LINE
8
CentreLine
10
  2.44
20
 -7.56
30
  0.87
11
  3.03
21
-10.11
31
  0.69
0
LINE
8
CentreLine
10
  3.03
20
-10.11
30
  0.69
11
  5.17
21
-11.15
31
 -0.08
0
LINE
8
CentreLine
10
  5.17
20
-11.15
30
 -0.08
11
  8.30
21
-12.55
31
 -2.31
0
LINE
8
CentreLine
10
  8.30
20
-12.55
30
 -2.31
11
  8.30
21
-12.55
31
 -7.34
0
LINE
8
CentreLine
10
  8.30
20
-12.55
30
 -7.34
11
  4.67
21
-11.58
31
 -5.97
0
LINE
8
CentreLine
10
  8.30
20
-12.55
30
 -7.34
11
  8.78
21
 -9.12
31
 -4.54
0
LINE
8
CentreLine
10
  8.78
20
 -9.12
30
 -4.54
11
  3.11
21
 -7.50
31
 -6.57
0
LINE
8
CentreLine
10
  3.11
20
 -7.50
30
 -6.57
11
  5.70
21
 -4.30
31
 -5.31
0
LINE
8
CentreLine
10
  3.11
20
 -7.50
30
 -6.57
11
  1.37
21
 -2.14
31
 -3.32
0
LINE
8
CentreLine
10
  3.11
20
 -7.50
30
 -6.57
11
  2.78
21
-13.86
31
-16.02
0
LINE
8
CentreLine
10
  3.11
20
 -7.50
30
 -6.57
11
  2.53
21
-18.67
31
-23.16
000
ENDSEC
000
EOF
