0
SECTION
2
HEADER
9
$EXTMIN
10
-18.673747
20
-23.155000
30
-8.832129
9
$EXTMAX
10
18.653767
20
23.155000
30
8.855377
9
$PDMODE
70
3
9
$PDSIZE
40
  0.80
0
ENDSEC
0
SECTION
2
TABLES
0
TABLE
2
LTYPE
70
10
0
LTYPE
2
CONTINUOUS
70
64
3
Continuous
72
65
73
0
40
0.0
0
LTYPE
2
DASHED
70
64
3
Dashed
72
65
73
2
40
2.5
49
1.25
49
-1.25
0
ENDTAB
0
TABLE
2
LAYER
70
10
0
LAYER
2
CentreLine
70
64
62
5
6
CONTINUOUS
0
LAYER
2
Stations
70
64
62
7
6
CONTINUOUS
0
LAYER
2
Labels
70
64
62
7
6
CONTINUOUS
0
LAYER
2
Surface
70
64
62
5
6
DASHED
0
LAYER
2
SurfaceStations
70
64
62
7
6
CONTINUOUS
0
LAYER
2
SurfaceLabels
70
64
62
7
6
CONTINUOUS
0
ENDTAB
0
ENDSEC
0
SECTION
2
ENTITIES
0
LINE
8
CentreLine
10
-18.67
20
 23.16
30
 -0.54
11
-18.67
21
 12.45
31
 -0.54
0
LINE
8
CentreLine
10
-18.67
20
 12.45
30
 -0.54
11
-16.68
21
 12.45
31
 -2.94
0
LINE
8
CentreLine
10
-16.68
20
 12.45
30
 -2.94
11
-16.68
21
 -7.96
31
 -2.94
0
LINE
8
CentreLine
10
-16.68
20
 -7.96
30
 -2.94
11
-17.80
21
 -9.23
31
 -1.33
0
LINE
8
CentreLine
10
-17.80
20
 -9.23
30
 -1.33
11
-17.80
21
-13.55
31
 -1.33
0
LINE
8
CentreLine
10
-16.68
20
 -7.96
30
 -2.94
11
-17.01
21
 -8.72
31
  0.34
0
LINE
8
CentreLine
10
-17.01
20
 -8.72
30
  0.34
11
-17.01
21
-14.89
31
  0.34
0
LINE
8
CentreLine
10
-16.68
20
 -7.96
30
 -2.94
11
-12.76
21
 -4.86
31
  8.86
0
LINE
8
CentreLine
10
-16.68
20
 -7.96
30
 -2.94
11
 -8.14
21
 -3.50
31
 -1.02
0
LINE
8
CentreLine
10
 -8.14
20
 -3.50
30
 -1.02
11
 -4.94
21
 -4.50
31
 -1.78
0
LINE
8
CentreLine
10
 -4.94
20
 -4.50
30
 -1.78
11
 -4.94
21
 -0.79
31
 -1.78
0
LINE
8
CentreLine
10
 -4.94
20
 -0.79
30
 -1.78
11
 -0.52
21
  0.69
31
 -2.75
0
LINE
8
CentreLine
10
 -0.52
20
  0.69
30
 -2.75
11
 -0.65
21
  1.92
31
 -4.11
0
LINE
8
CentreLine
10
 -0.65
20
  1.92
30
 -4.11
11
  0.63
21
  1.76
31
 -3.80
0
LINE
8
CentreLine
10
  0.63
20
  1.76
30
 -3.80
11
  6.36
21
  1.05
31
 -3.74
0
LINE
8
CentreLine
10
  6.36
20
  1.05
30
 -3.74
11
  7.54
21
  0.87
31
 -2.48
0
LINE
8
CentreLine
10
  7.54
20
  0.87
30
 -2.48
11
 10.09
21
  0.69
31
 -3.09
0
LINE
8
CentreLine
10
 10.09
20
  0.69
30
 -3.09
11
 11.12
21
 -0.08
31
 -5.23
0
LINE
8
CentreLine
10
 11.12
20
 -0.08
30
 -5.23
11
 12.50
21
 -2.31
31
 -8.37
0
LINE
8
CentreLine
10
 12.50
20
 -2.31
30
 -8.37
11
 12.50
21
 -7.34
31
 -8.37
0
LINE
8
CentreLine
10
 12.50
20
 -7.34
30
 -8.37
11
 11.55
21
 -5.97
31
 -4.74
0
LINE
8
CentreLine
10
 12.50
20
 -7.34
30
 -8.37
11
  9.06
21
 -4.54
31
 -8.83
0
LINE
8
CentreLine
10
  9.06
20
 -4.54
30
 -8.83
11
  7.48
21
 -6.57
31
 -3.15
0
LINE
8
CentreLine
10
  7.48
20
 -6.57
30
 -3.15
11
  4.26
21
 -5.31
31
 -5.72
0
LINE
8
CentreLine
10
  7.48
20
 -6.57
30
 -3.15
11
  2.13
21
 -3.32
31
 -1.38
0
LINE
8
CentreLine
10
  7.48
20
 -6.57
30
 -3.15
11
 13.84
21
-16.02
31
 -2.86
0
LINE
8
CentreLine
10
  7.48
20
 -6.57
30
 -3.15
11
 18.65
21
-23.16
31
 -2.64
000
ENDSEC
000
EOF
