0
SECTION
2
HEADER
9
$EXTMIN
10
-317.160000
20
-472.900000
30
-400.760000
9
$EXTMAX
10
317.160000
20
472.900000
30
400.760000
9
$PDMODE
70
3
9
$PDSIZE
40
  0.80
0
ENDSEC
0
SECTION
2
TABLES
0
TABLE
2
LTYPE
70
10
0
LTYPE
2
CONTINUOUS
70
64
3
Continuous
72
65
73
0
40
0.0
0
LTYPE
2
DASHED
70
64
3
Dashed
72
65
73
2
40
2.5
49
1.25
49
-1.25
0
ENDTAB
0
TABLE
2
LAYER
70
10
0
LAYER
2
CentreLine
70
64
62
5
6
CONTINUOUS
0
LAYER
2
Stations
70
64
62
7
6
CONTINUOUS
0
LAYER
2
Labels
70
64
62
7
6
CONTINUOUS
0
LAYER
2
Surface
70
64
62
5
6
DASHED
0
LAYER
2
SurfaceStations
70
64
62
7
6
CONTINUOUS
0
LAYER
2
SurfaceLabels
70
64
62
7
6
CONTINUOUS
0
ENDTAB
0
ENDSEC
0
SECTION
2
ENTITIES
0
LINE
8
CentreLine
10
277.06
20
-129.16
30
369.60
11
272.68
21
-118.85
31
362.87
0
LINE
8
CentreLine
10
272.68
20
-118.85
30
362.87
11
268.18
21
-119.89
31
361.63
0
LINE
8
CentreLine
10
268.18
20
-119.89
30
361.63
11
263.39
21
-120.05
31
345.95
0
LINE
8
CentreLine
10
263.39
20
-120.05
30
345.95
11
257.00
21
-123.74
31
340.97
0
LINE
8
CentreLine
10
257.00
20
-123.74
30
340.97
11
256.79
21
-125.23
31
340.97
0
LINE
8
CentreLine
10
256.79
20
-125.23
30
340.97
11
255.93
21
-125.68
31
331.72
0
LINE
8
CentreLine
10
255.93
20
-125.68
30
331.72
11
250.25
21
-129.10
31
328.91
0
LINE
8
CentreLine
10
250.25
20
-129.10
30
328.91
11
249.67
21
-129.84
31
324.82
0
LINE
8
CentreLine
10
249.67
20
-129.84
30
324.82
11
245.16
21
-129.92
31
323.17
0
LINE
8
CentreLine
10
245.16
20
-129.92
30
323.17
11
241.06
21
-128.82
31
322.50
0
LINE
8
CentreLine
10
241.06
20
-128.82
30
322.50
11
241.06
21
-128.82
31
315.70
0
LINE
8
CentreLine
10
241.06
20
-128.82
30
315.70
11
230.41
21
-129.94
31
311.80
0
LINE
8
CentreLine
10
277.06
20
-129.16
30
369.60
11
275.76
21
-128.35
31
367.32
0
LINE
8
CentreLine
10
275.76
20
-128.35
30
367.32
11
275.76
21
-128.35
31
360.13
0
LINE
8
CentreLine
10
275.76
20
-128.35
30
360.13
11
273.74
21
-118.87
31
364.04
0
LINE
8
CentreLine
10
273.74
20
-118.87
30
364.04
11
274.74
21
-119.51
31
363.25
0
LINE
8
CentreLine
10
274.74
20
-119.51
30
363.25
11
274.74
21
-119.51
31
335.05
0
LINE
8
CentreLine
10
274.74
20
-119.51
30
335.05
11
274.31
21
-125.64
31
331.21
0
LINE
8
CentreLine
10
274.31
20
-125.64
30
331.21
11
274.31
21
-125.64
31
325.91
0
LINE
8
CentreLine
10
274.31
20
-125.64
30
325.91
11
279.52
21
-126.28
31
325.08
0
LINE
8
CentreLine
10
279.52
20
-126.28
30
325.08
11
279.65
21
-129.88
31
322.91
0
LINE
8
CentreLine
10
279.65
20
-129.88
30
322.91
11
278.06
21
-129.42
31
320.06
0
LINE
8
CentreLine
10
278.06
20
-129.42
30
320.06
11
282.50
21
-125.96
31
320.06
0
LINE
8
CentreLine
10
282.50
20
-125.96
30
320.06
11
282.50
21
-125.96
31
311.70
0
LINE
8
CentreLine
10
282.50
20
-125.96
30
311.70
11
281.05
21
-130.99
31
313.00
0
LINE
8
CentreLine
10
281.05
20
-130.99
30
313.00
11
277.31
21
-137.76
31
309.88
0
LINE
8
CentreLine
10
277.31
20
-137.76
30
309.88
11
273.80
21
-138.31
31
306.07
0
LINE
8
CentreLine
10
273.80
20
-138.31
30
306.07
11
267.00
21
-143.44
31
307.58
0
LINE
8
CentreLine
10
267.00
20
-143.44
30
307.58
11
256.67
21
-145.44
31
311.62
0
LINE
8
CentreLine
10
256.67
20
-145.44
30
311.62
11
259.80
21
-143.64
31
310.44
0
LINE
8
CentreLine
10
259.80
20
-143.64
30
310.44
11
261.88
21
-144.65
31
308.36
0
LINE
8
CentreLine
10
261.88
20
-144.65
30
308.36
11
259.90
21
-145.61
31
305.44
0
LINE
8
CentreLine
10
259.90
20
-145.61
30
305.44
11
259.90
21
-145.61
31
301.98
0
LINE
8
CentreLine
10
259.90
20
-145.61
30
301.98
11
256.92
21
-147.70
31
304.54
0
LINE
8
CentreLine
10
256.92
20
-147.70
30
304.54
11
255.11
21
-149.34
31
301.30
0
LINE
8
CentreLine
10
255.11
20
-149.34
30
301.30
11
255.11
21
-149.34
31
294.40
0
LINE
8
CentreLine
10
255.11
20
-149.34
30
294.40
11
248.62
21
-149.22
31
294.06
0
LINE
8
CentreLine
10
248.62
20
-149.22
30
294.06
11
248.88
21
-147.53
31
294.06
0
LINE
8
CentreLine
10
248.88
20
-147.53
30
294.06
11
248.88
21
-147.53
31
278.84
0
LINE
8
CentreLine
10
248.88
20
-147.53
30
278.84
11
232.80
21
-142.62
31
282.42
0
LINE
8
CentreLine
10
232.80
20
-142.62
30
282.42
11
230.56
21
-142.66
31
281.94
0
LINE
8
CentreLine
10
230.56
20
-142.66
30
281.94
11
229.95
21
-140.99
31
281.66
0
LINE
8
CentreLine
10
229.95
20
-140.99
30
281.66
11
229.49
21
-136.64
31
276.98
0
LINE
8
CentreLine
10
229.49
20
-136.64
30
276.98
11
229.49
21
-136.64
31
235.78
0
LINE
8
CentreLine
10
229.49
20
-136.64
30
235.78
11
229.49
21
-136.64
31
218.28
0
LINE
8
CentreLine
10
229.49
20
-136.64
30
218.28
11
230.11
21
-154.28
31
218.58
0
LINE
8
CentreLine
10
230.11
20
-154.28
30
218.58
11
228.87
21
-158.10
31
214.13
0
LINE
8
CentreLine
10
228.87
20
-158.10
30
214.13
11
228.87
21
-158.10
31
209.33
0
LINE
8
CentreLine
10
228.87
20
-158.10
30
209.33
11
228.01
21
-162.49
31
207.87
0
LINE
8
CentreLine
10
228.01
20
-162.49
30
207.87
11
229.86
21
-167.57
31
202.83
0
LINE
8
CentreLine
10
229.86
20
-167.57
30
202.83
11
231.68
21
-173.92
31
202.71
0
LINE
8
CentreLine
10
231.68
20
-173.92
30
202.71
11
231.68
21
-173.92
31
185.51
0
LINE
8
CentreLine
10
277.06
20
-129.16
30
369.60
11
282.07
21
-132.67
31
371.95
0
LINE
8
CentreLine
10
282.07
20
-132.67
30
371.95
11
282.07
21
-132.67
31
376.35
0
LINE
8
CentreLine
10
282.07
20
-132.67
30
376.35
11
288.85
21
-133.38
31
375.99
0
LINE
8
CentreLine
10
288.85
20
-133.38
30
375.99
11
288.85
21
-133.38
31
380.94
0
LINE
8
CentreLine
10
288.85
20
-133.38
30
380.94
11
292.83
21
-134.30
31
381.66
0
LINE
8
CentreLine
10
292.83
20
-134.30
30
381.66
11
293.27
21
-132.79
31
380.64
0
LINE
8
CentreLine
10
293.27
20
-132.79
30
380.64
11
295.31
21
-131.97
31
381.76
0
LINE
8
CentreLine
10
295.31
20
-131.97
30
381.76
11
295.31
21
-131.97
31
387.83
0
LINE
8
CentreLine
10
295.31
20
-131.97
30
387.83
11
295.49
21
-129.88
31
389.59
0
LINE
8
CentreLine
10
295.49
20
-129.88
30
389.59
11
295.49
21
-129.88
31
391.80
0
LINE
8
CentreLine
10
295.49
20
-129.88
30
391.80
11
299.51
21
-133.26
31
391.61
0
LINE
8
CentreLine
10
299.51
20
-133.26
30
391.61
11
302.08
21
-134.57
31
392.39
0
LINE
8
CentreLine
10
302.08
20
-134.57
30
392.39
11
305.55
21
-133.44
31
393.16
0
LINE
8
CentreLine
10
305.55
20
-133.44
30
393.16
11
312.06
21
-130.68
31
397.76
0
LINE
8
CentreLine
10
312.06
20
-130.68
30
397.76
11
317.16
21
-128.82
31
400.76
0
LINE
8
CentreLine
10
231.68
20
-173.92
30
202.71
11
232.14
21
-175.16
31
193.31
0
LINE
8
CentreLine
10
232.14
20
-175.16
30
193.31
11
233.22
21
-178.70
31
191.97
0
LINE
8
CentreLine
10
233.22
20
-178.70
30
191.97
11
235.57
21
-179.28
31
195.07
0
LINE
8
CentreLine
10
235.57
20
-179.28
30
195.07
11
237.66
21
-196.32
31
198.41
0
LINE
8
CentreLine
10
237.66
20
-196.32
30
198.41
11
240.15
21
-209.10
31
198.63
0
LINE
8
CentreLine
10
240.15
20
-209.10
30
198.63
11
237.99
21
-208.68
31
198.44
0
LINE
8
CentreLine
10
237.99
20
-208.68
30
198.44
11
236.61
21
-206.64
31
197.74
0
LINE
8
CentreLine
10
236.61
20
-206.64
30
197.74
11
236.61
21
-206.64
31
186.43
0
LINE
8
CentreLine
10
236.61
20
-206.64
30
186.43
11
239.21
21
-209.34
31
179.39
0
LINE
8
CentreLine
10
239.21
20
-209.34
30
179.39
11
238.50
21
-209.75
31
155.82
0
LINE
8
CentreLine
10
238.50
20
-209.75
30
155.82
11
234.62
21
-210.86
31
156.10
0
LINE
8
CentreLine
10
234.62
20
-210.86
30
156.10
11
231.21
21
-212.52
31
153.91
0
LINE
8
CentreLine
10
231.21
20
-212.52
30
153.91
11
230.46
21
-209.90
31
154.01
0
LINE
8
CentreLine
10
230.46
20
-209.90
30
154.01
11
228.87
21
-208.30
31
128.21
0
LINE
8
CentreLine
10
228.87
20
-208.30
30
128.21
11
218.94
21
-204.88
31
126.73
0
LINE
8
CentreLine
10
218.94
20
-204.88
30
126.73
11
218.94
21
-204.88
31
106.84
0
LINE
8
CentreLine
10
218.94
20
-204.88
30
106.84
11
219.33
21
-208.58
31
108.27
0
LINE
8
CentreLine
10
219.33
20
-208.58
30
108.27
11
218.78
21
-211.16
31
107.71
0
LINE
8
CentreLine
10
218.78
20
-211.16
30
107.71
11
218.78
21
-211.16
31
 93.90
0
LINE
8
CentreLine
10
218.78
20
-211.16
30
 93.90
11
218.78
21
-211.16
31
 73.32
0
LINE
8
CentreLine
10
218.78
20
-211.16
30
 73.32
11
218.78
21
-211.16
31
 55.27
0
LINE
8
CentreLine
10
218.78
20
-211.16
30
 55.27
11
218.78
21
-211.16
31
 40.94
0
LINE
8
CentreLine
10
218.78
20
-211.16
30
 40.94
11
218.00
21
-215.60
31
 40.94
0
LINE
8
CentreLine
10
218.00
20
-215.60
30
 40.94
11
205.91
21
-217.51
31
 40.51
0
LINE
8
CentreLine
10
205.91
20
-217.51
30
 40.51
11
205.38
21
-217.17
31
 40.19
0
LINE
8
CentreLine
10
205.38
20
-217.17
30
 40.19
11
205.38
21
-217.17
31
 24.71
0
LINE
8
CentreLine
10
205.38
20
-217.17
30
 24.71
11
199.20
21
-219.80
31
 22.13
0
LINE
8
CentreLine
10
199.20
20
-219.80
30
 22.13
11
194.59
21
-221.12
31
 20.00
0
LINE
8
CentreLine
10
194.59
20
-221.12
30
 20.00
11
194.59
21
-221.12
31
  7.78
0
LINE
8
CentreLine
10
194.59
20
-221.12
30
  7.78
11
192.09
21
-218.62
31
  9.43
0
LINE
8
CentreLine
10
192.09
20
-218.62
30
  9.43
11
191.02
21
-218.81
31
  7.21
0
LINE
8
CentreLine
10
191.02
20
-218.81
30
  7.21
11
191.02
21
-218.81
31
-20.72
0
LINE
8
CentreLine
10
191.02
20
-218.81
30
-20.72
11
186.74
21
-219.56
31
-30.97
0
LINE
8
CentreLine
10
186.74
20
-219.56
30
-30.97
11
184.31
21
-220.91
31
-32.44
0
LINE
8
CentreLine
10
184.31
20
-220.91
30
-32.44
11
179.32
21
-221.43
31
-39.35
0
LINE
8
CentreLine
10
179.32
20
-221.43
30
-39.35
11
179.53
21
-225.41
31
-42.04
0
LINE
8
CentreLine
10
179.53
20
-225.41
30
-42.04
11
180.50
21
-228.39
31
-43.31
0
LINE
8
CentreLine
10
180.50
20
-228.39
30
-43.31
11
176.93
21
-236.05
31
-45.65
0
LINE
8
CentreLine
10
176.93
20
-236.05
30
-45.65
11
175.43
21
-236.57
31
-45.79
0
LINE
8
CentreLine
10
175.43
20
-236.57
30
-45.79
11
177.16
21
-240.28
31
-45.72
0
LINE
8
CentreLine
10
177.16
20
-240.28
30
-45.72
11
175.18
21
-241.15
31
-46.42
0
LINE
8
CentreLine
10
175.18
20
-241.15
30
-46.42
11
172.02
21
-239.33
31
-47.75
0
LINE
8
CentreLine
10
179.32
20
-221.43
30
-39.35
11
182.40
21
-223.28
31
-43.95
0
LINE
8
CentreLine
10
191.02
20
-218.81
30
-20.72
11
191.02
21
-218.81
31
-30.96
0
LINE
8
CentreLine
10
191.02
20
-218.81
30
-30.96
11
191.02
21
-218.81
31
-27.23
0
LINE
8
CentreLine
10
191.02
20
-218.81
30
-27.23
11
180.30
21
-217.11
31
-27.80
0
LINE
8
CentreLine
10
180.30
20
-217.11
30
-27.80
11
178.99
21
-207.78
31
-23.80
0
LINE
8
CentreLine
10
178.99
20
-207.78
30
-23.80
11
176.27
21
-207.59
31
-24.74
0
LINE
8
CentreLine
10
176.27
20
-207.59
30
-24.74
11
164.89
21
-207.19
31
-38.31
0
LINE
8
CentreLine
10
164.89
20
-207.19
30
-38.31
11
162.50
21
-210.73
31
-40.88
0
LINE
8
CentreLine
10
162.50
20
-210.73
30
-40.88
11
161.04
21
-212.60
31
-41.48
0
LINE
8
CentreLine
10
161.04
20
-212.60
30
-41.48
11
164.62
21
-214.42
31
-42.55
0
LINE
8
CentreLine
10
164.62
20
-214.42
30
-42.55
11
165.15
21
-216.29
31
-47.36
0
LINE
8
CentreLine
10
165.15
20
-216.29
30
-47.36
11
165.15
21
-223.54
31
-50.74
0
LINE
8
CentreLine
10
233.22
20
-178.70
30
191.97
11
231.17
21
-178.30
31
189.88
0
LINE
8
CentreLine
10
231.17
20
-178.30
30
189.88
11
231.56
21
-179.11
31
185.25
0
LINE
8
CentreLine
10
231.56
20
-179.11
30
185.25
11
232.09
21
-182.08
31
182.97
0
LINE
8
CentreLine
10
232.09
20
-182.08
30
182.97
11
235.90
21
-185.17
31
182.89
0
LINE
8
CentreLine
10
235.90
20
-185.17
30
182.89
11
235.43
21
-187.36
31
181.38
0
LINE
8
CentreLine
10
235.43
20
-187.36
30
181.38
11
236.36
21
-191.75
31
180.17
0
LINE
8
CentreLine
10
256.67
20
-145.44
30
311.62
11
255.10
21
-148.28
31
311.62
0
LINE
8
CentreLine
10
255.10
20
-148.28
30
311.62
11
257.07
21
-147.82
31
310.88
0
LINE
8
CentreLine
10
257.07
20
-147.82
30
310.88
11
257.07
21
-147.82
31
317.43
0
LINE
8
CentreLine
10
257.07
20
-147.82
30
317.43
11
258.47
21
-147.29
31
317.43
0
LINE
8
CentreLine
10
258.47
20
-147.29
30
317.43
11
259.60
21
-149.72
31
317.43
0
LINE
8
CentreLine
10
259.60
20
-149.72
30
317.43
11
261.69
21
-148.91
31
319.31
0
LINE
8
CentreLine
10
261.69
20
-148.91
30
319.31
11
261.69
21
-148.91
31
323.91
0
LINE
8
CentreLine
10
261.69
20
-148.91
30
323.91
11
264.71
21
-147.51
31
324.92
0
LINE
8
CentreLine
10
264.71
20
-147.51
30
324.92
11
268.63
21
-147.71
31
324.86
0
LINE
8
CentreLine
10
268.63
20
-147.71
30
324.86
11
269.45
21
-145.88
31
330.69
0
LINE
8
CentreLine
10
269.45
20
-145.88
30
330.69
11
261.86
21
-146.94
31
333.78
0
LINE
8
CentreLine
10
261.86
20
-146.94
30
333.78
11
260.00
21
-150.45
31
333.92
0
LINE
8
CentreLine
10
260.00
20
-150.45
30
333.92
11
261.31
21
-153.14
31
332.26
0
LINE
8
CentreLine
10
261.31
20
-153.14
30
332.26
11
257.90
21
-152.09
31
334.08
0
LINE
8
CentreLine
10
261.86
20
-146.94
30
333.78
11
263.11
21
-149.29
31
336.96
0
LINE
8
CentreLine
10
263.11
20
-149.29
30
336.96
11
264.18
21
-147.44
31
338.29
0
LINE
8
CentreLine
10
259.60
20
-149.72
30
317.43
11
261.26
21
-148.87
31
313.62
0
LINE
8
CentreLine
10
261.26
20
-148.87
30
313.62
11
261.33
21
-151.01
31
310.88
0
LINE
8
CentreLine
10
261.33
20
-151.01
30
310.88
11
261.33
21
-151.01
31
294.48
0
LINE
8
CentreLine
10
256.67
20
-145.44
30
311.62
11
256.67
21
-145.44
31
318.18
0
LINE
8
CentreLine
10
256.67
20
-145.44
30
318.18
11
257.36
21
-142.45
31
317.47
0
LINE
8
CentreLine
10
257.36
20
-142.45
30
317.47
11
261.81
21
-137.68
31
320.94
0
LINE
8
CentreLine
10
261.81
20
-137.68
30
320.94
11
261.69
21
-136.32
31
324.15
0
LINE
8
CentreLine
10
261.69
20
-136.32
30
324.15
11
263.03
21
-132.66
31
323.81
0
LINE
8
CentreLine
10
164.89
20
-207.19
30
-38.31
11
160.71
21
-206.30
31
-35.21
0
LINE
8
CentreLine
10
160.71
20
-206.30
30
-35.21
11
155.64
21
-214.42
31
-39.88
0
LINE
8
CentreLine
10
155.64
20
-214.42
30
-39.88
11
152.69
21
-215.04
31
-40.47
0
LINE
8
CentreLine
10
152.69
20
-215.04
30
-40.47
11
150.71
21
-213.76
31
-40.34
0
LINE
8
CentreLine
10
150.71
20
-213.76
30
-40.34
11
150.71
21
-213.76
31
-39.57
0
LINE
8
CentreLine
10
150.71
20
-213.76
30
-39.57
11
147.85
21
-213.41
31
-41.66
0
LINE
8
CentreLine
10
147.85
20
-213.41
30
-41.66
11
146.20
21
-214.84
31
-42.98
0
LINE
8
CentreLine
10
146.20
20
-214.84
30
-42.98
11
143.86
21
-214.17
31
-44.56
0
LINE
8
CentreLine
10
143.86
20
-214.17
30
-44.56
11
140.98
21
-218.95
31
-52.53
0
LINE
8
CentreLine
10
140.98
20
-218.95
30
-52.53
11
142.76
21
-224.77
31
-53.83
0
LINE
8
CentreLine
10
142.76
20
-224.77
30
-53.83
11
145.07
21
-223.93
31
-53.70
0
LINE
8
CentreLine
10
145.07
20
-223.93
30
-53.70
11
145.58
21
-223.76
31
-55.59
0
LINE
8
CentreLine
10
145.58
20
-223.76
30
-55.59
11
144.08
21
-226.98
31
-61.51
0
LINE
8
CentreLine
10
144.08
20
-226.98
30
-61.51
11
147.65
21
-229.21
31
-59.63
0
LINE
8
CentreLine
10
147.65
20
-229.21
30
-59.63
11
147.29
21
-230.94
31
-61.99
0
LINE
8
CentreLine
10
147.29
20
-230.94
30
-61.99
11
147.29
21
-230.94
31
-67.62
0
LINE
8
CentreLine
10
147.29
20
-230.94
30
-67.62
11
145.91
21
-236.07
31
-67.99
0
LINE
8
CentreLine
10
145.91
20
-236.07
30
-67.99
11
145.11
21
-240.61
31
-69.85
0
LINE
8
CentreLine
10
145.11
20
-240.61
30
-69.85
11
143.72
21
-244.23
31
-72.18
0
LINE
8
CentreLine
10
143.72
20
-244.23
30
-72.18
11
151.47
21
-250.74
31
-87.19
0
LINE
8
CentreLine
10
151.47
20
-250.74
30
-87.19
11
154.76
21
-247.98
31
-85.79
0
LINE
8
CentreLine
10
154.76
20
-247.98
30
-85.79
11
156.65
21
-248.67
31
-89.43
0
LINE
8
CentreLine
10
156.65
20
-248.67
30
-89.43
11
158.63
21
-253.83
31
-92.25
0
LINE
8
CentreLine
10
158.63
20
-253.83
30
-92.25
11
160.86
21
-255.01
31
-91.57
0
LINE
8
CentreLine
10
160.86
20
-255.01
30
-91.57
11
164.58
21
-249.90
31
-92.24
0
LINE
8
CentreLine
10
164.58
20
-249.90
30
-92.24
11
167.25
21
-248.53
31
-92.45
0
LINE
8
CentreLine
10
167.25
20
-248.53
30
-92.45
11
169.63
21
-248.28
31
-92.24
0
LINE
8
CentreLine
10
169.63
20
-248.28
30
-92.24
11
169.63
21
-248.28
31
-122.24
0
LINE
8
CentreLine
10
169.63
20
-248.28
30
-122.24
11
169.29
21
-250.73
31
-121.19
0
LINE
8
CentreLine
10
169.29
20
-250.73
30
-121.19
11
167.42
21
-251.06
31
-126.41
0
LINE
8
CentreLine
10
167.42
20
-251.06
30
-126.41
11
167.42
21
-251.06
31
-144.91
0
LINE
8
CentreLine
10
167.42
20
-251.06
30
-144.91
11
161.47
21
-249.46
31
-143.60
0
LINE
8
CentreLine
10
161.47
20
-249.46
30
-143.60
11
155.51
21
-256.08
31
-146.66
0
LINE
8
CentreLine
10
161.47
20
-249.46
30
-143.60
11
166.88
21
-253.61
31
-141.38
0
LINE
8
CentreLine
10
166.88
20
-253.61
30
-141.38
11
175.39
21
-271.06
31
-140.36
0
LINE
8
CentreLine
10
175.39
20
-271.06
30
-140.36
11
188.92
21
-283.25
31
-141.32
0
LINE
8
CentreLine
10
188.92
20
-283.25
30
-141.32
11
194.27
21
-288.69
31
-142.80
0
LINE
8
CentreLine
10
194.27
20
-288.69
30
-142.80
11
198.74
21
-300.66
31
-140.78
0
LINE
8
CentreLine
10
198.74
20
-300.66
30
-140.78
11
193.70
21
-289.84
31
-138.56
0
LINE
8
CentreLine
10
193.70
20
-289.84
30
-138.56
11
185.96
21
-289.17
31
-140.79
0
LINE
8
CentreLine
10
185.96
20
-289.17
30
-140.79
11
184.53
21
-300.81
31
-143.07
0
LINE
8
CentreLine
10
184.53
20
-300.81
30
-143.07
11
183.23
21
-307.82
31
-144.39
0
LINE
8
CentreLine
10
183.23
20
-307.82
30
-144.39
11
190.57
21
-331.09
31
-145.88
0
LINE
8
CentreLine
10
190.57
20
-331.09
30
-145.88
11
197.64
21
-336.82
31
-146.04
0
LINE
8
CentreLine
10
197.64
20
-336.82
30
-146.04
11
201.03
21
-347.24
31
-146.43
0
LINE
8
CentreLine
10
201.03
20
-347.24
30
-146.43
11
207.61
21
-359.11
31
-152.47
0
LINE
8
CentreLine
10
207.61
20
-359.11
30
-152.47
11
196.88
21
-367.19
31
-158.45
0
LINE
8
CentreLine
10
196.88
20
-367.19
30
-158.45
11
195.47
21
-369.00
31
-160.37
0
LINE
8
CentreLine
10
195.47
20
-369.00
30
-160.37
11
185.79
21
-376.30
31
-159.74
0
LINE
8
CentreLine
10
185.79
20
-376.30
30
-159.74
11
177.89
21
-387.57
31
-160.22
0
LINE
8
CentreLine
10
177.89
20
-387.57
30
-160.22
11
164.41
21
-395.36
31
-164.39
0
LINE
8
CentreLine
10
164.41
20
-395.36
30
-164.39
11
163.35
21
-405.39
31
-167.48
0
LINE
8
CentreLine
10
163.35
20
-405.39
30
-167.48
11
165.31
21
-409.59
31
-172.36
0
LINE
8
CentreLine
10
165.31
20
-409.59
30
-172.36
11
169.25
21
-419.34
31
-170.12
0
LINE
8
CentreLine
10
169.25
20
-419.34
30
-170.12
11
166.50
21
-424.73
31
-168.39
0
LINE
8
CentreLine
10
166.50
20
-424.73
30
-168.39
11
157.08
21
-434.84
31
-165.45
0
LINE
8
CentreLine
10
157.08
20
-434.84
30
-165.45
11
149.81
21
-430.12
31
-166.98
0
LINE
8
CentreLine
10
207.61
20
-359.11
30
-152.47
11
211.75
21
-354.51
31
-156.04
0
LINE
8
CentreLine
10
211.75
20
-354.51
30
-156.04
11
209.43
21
-357.09
31
-159.28
0
LINE
8
CentreLine
10
209.43
20
-357.09
30
-159.28
11
209.43
21
-357.09
31
-162.18
0
LINE
8
CentreLine
10
209.43
20
-357.09
30
-162.18
11
209.11
21
-356.71
31
-162.18
0
LINE
8
CentreLine
10
209.11
20
-356.71
30
-162.18
11
209.11
21
-356.71
31
-172.46
0
LINE
8
CentreLine
10
209.11
20
-356.71
30
-172.46
11
203.91
21
-359.71
31
-172.46
0
LINE
8
CentreLine
10
169.25
20
-419.34
30
-170.12
11
171.92
21
-419.88
31
-170.36
0
LINE
8
CentreLine
10
171.92
20
-419.88
30
-170.36
11
175.13
21
-417.72
31
-172.42
0
LINE
8
CentreLine
10
175.13
20
-417.72
30
-172.42
11
182.01
21
-417.42
31
-171.69
0
LINE
8
CentreLine
10
182.01
20
-417.42
30
-171.69
11
187.67
21
-423.82
31
-169.08
0
LINE
8
CentreLine
10
187.67
20
-423.82
30
-169.08
11
186.14
21
-432.48
31
-171.77
0
LINE
8
CentreLine
10
186.14
20
-432.48
30
-171.77
11
189.76
21
-438.52
31
-172.39
0
LINE
8
CentreLine
10
189.76
20
-438.52
30
-172.39
11
191.14
21
-441.76
31
-173.81
0
LINE
8
CentreLine
10
191.14
20
-441.76
30
-173.81
11
198.17
21
-447.46
31
-173.66
0
LINE
8
CentreLine
10
198.17
20
-447.46
30
-173.66
11
197.24
21
-446.22
31
-173.66
0
LINE
8
CentreLine
10
197.24
20
-446.22
30
-173.66
11
199.26
21
-450.98
31
-174.38
0
LINE
8
CentreLine
10
199.26
20
-450.98
30
-174.38
11
202.31
21
-450.50
31
-176.55
0
LINE
8
CentreLine
10
202.31
20
-450.50
30
-176.55
11
205.12
21
-451.81
31
-185.04
0
LINE
8
CentreLine
10
205.12
20
-451.81
30
-185.04
11
207.63
21
-451.72
31
-189.07
0
LINE
8
CentreLine
10
207.63
20
-451.72
30
-189.07
11
208.14
21
-449.67
31
-194.31
0
LINE
8
CentreLine
10
208.14
20
-449.67
30
-194.31
11
208.14
21
-449.67
31
-216.41
0
LINE
8
CentreLine
10
208.14
20
-449.67
30
-216.41
11
208.14
21
-449.67
31
-227.19
0
LINE
8
CentreLine
10
208.14
20
-449.67
30
-227.19
11
208.14
21
-449.67
31
-247.16
0
LINE
8
CentreLine
10
208.14
20
-449.67
30
-247.16
11
208.98
21
-446.30
31
-245.61
0
LINE
8
CentreLine
10
208.98
20
-446.30
30
-245.61
11
198.14
21
-453.61
31
-244.93
0
LINE
8
CentreLine
10
198.14
20
-453.61
30
-244.93
11
196.37
21
-454.99
31
-245.00
0
LINE
8
CentreLine
10
196.37
20
-454.99
30
-245.00
11
191.90
21
-453.27
31
-245.51
0
LINE
8
CentreLine
10
191.90
20
-453.27
30
-245.51
11
186.39
21
-452.99
31
-245.51
0
LINE
8
CentreLine
10
186.39
20
-452.99
30
-245.51
11
184.09
21
-456.81
31
-245.35
0
LINE
8
CentreLine
10
184.09
20
-456.81
30
-245.35
11
182.38
21
-457.02
31
-245.38
0
LINE
8
CentreLine
10
182.38
20
-457.02
30
-245.38
11
179.72
21
-454.46
31
-244.53
0
LINE
8
CentreLine
10
179.72
20
-454.46
30
-244.53
11
179.06
21
-451.33
31
-244.87
0
LINE
8
CentreLine
10
179.06
20
-451.33
30
-244.87
11
175.52
21
-445.20
31
-244.50
0
LINE
8
CentreLine
10
175.52
20
-445.20
30
-244.50
11
170.13
21
-444.25
31
-244.59
0
LINE
8
CentreLine
10
170.13
20
-444.25
30
-244.59
11
172.51
21
-445.69
31
-243.35
0
LINE
8
CentreLine
10
172.51
20
-445.69
30
-243.35
11
178.03
21
-456.06
31
-241.49
0
LINE
8
CentreLine
10
178.03
20
-456.06
30
-241.49
11
181.96
21
-458.07
31
-240.71
0
LINE
8
CentreLine
10
181.96
20
-458.07
30
-240.71
11
186.95
21
-457.28
31
-239.36
0
LINE
8
CentreLine
10
186.95
20
-457.28
30
-239.36
11
190.43
21
-453.80
31
-241.15
0
LINE
8
CentreLine
10
190.43
20
-453.80
30
-241.15
11
189.64
21
-448.80
31
-239.51
0
LINE
8
CentreLine
10
172.51
20
-445.69
30
-243.35
11
167.17
21
-442.60
31
-243.78
0
LINE
8
CentreLine
10
167.17
20
-442.60
30
-243.78
11
162.32
21
-436.16
31
-244.92
0
LINE
8
CentreLine
10
162.32
20
-436.16
30
-244.92
11
157.17
21
-432.82
31
-245.02
0
LINE
8
CentreLine
10
157.17
20
-432.82
30
-245.02
11
153.88
21
-409.40
31
-243.78
0
LINE
8
CentreLine
10
153.88
20
-409.40
30
-243.78
11
148.46
21
-405.32
31
-245.47
0
LINE
8
CentreLine
10
148.46
20
-405.32
30
-245.47
11
148.85
21
-401.59
31
-245.54
0
LINE
8
CentreLine
10
148.85
20
-401.59
30
-245.54
11
150.80
21
-393.16
31
-246.30
0
LINE
8
CentreLine
10
150.80
20
-393.16
30
-246.30
11
149.44
21
-390.59
31
-245.57
0
LINE
8
CentreLine
10
149.44
20
-390.59
30
-245.57
11
149.79
21
-380.59
31
-245.40
0
LINE
8
CentreLine
10
149.79
20
-380.59
30
-245.40
11
149.68
21
-374.37
31
-245.72
0
LINE
8
CentreLine
10
149.68
20
-374.37
30
-245.72
11
143.88
21
-366.96
31
-245.56
0
LINE
8
CentreLine
10
143.88
20
-366.96
30
-245.56
11
145.12
21
-364.82
31
-246.56
0
LINE
8
CentreLine
10
145.12
20
-364.82
30
-246.56
11
143.57
21
-363.48
31
-246.66
0
LINE
8
CentreLine
10
143.57
20
-363.48
30
-246.66
11
144.80
21
-363.03
31
-246.62
0
LINE
8
CentreLine
10
144.80
20
-363.03
30
-246.62
11
141.63
21
-353.27
31
-244.44
0
LINE
8
CentreLine
10
141.63
20
-353.27
30
-244.44
11
137.97
21
-347.41
31
-245.91
0
LINE
8
CentreLine
10
137.97
20
-347.41
30
-245.91
11
135.25
21
-345.57
31
-252.35
0
LINE
8
CentreLine
10
135.25
20
-345.57
30
-252.35
11
134.16
21
-346.55
31
-252.85
0
LINE
8
CentreLine
10
134.16
20
-346.55
30
-252.85
11
134.16
21
-358.69
31
-260.74
0
LINE
8
CentreLine
10
134.16
20
-358.69
30
-260.74
11
132.98
21
-358.77
31
-261.92
0
LINE
8
CentreLine
10
132.98
20
-358.77
30
-261.92
11
134.19
21
-360.95
31
-261.96
0
LINE
8
CentreLine
10
134.19
20
-360.95
30
-261.96
11
135.94
21
-364.39
31
-262.37
0
LINE
8
CentreLine
10
135.94
20
-364.39
30
-262.37
11
134.37
21
-370.71
31
-266.44
0
LINE
8
CentreLine
10
134.37
20
-370.71
30
-266.44
11
136.69
21
-377.10
31
-267.63
0
LINE
8
CentreLine
10
136.69
20
-377.10
30
-267.63
11
138.24
21
-380.02
31
-271.87
0
LINE
8
CentreLine
10
138.24
20
-380.02
30
-271.87
11
139.62
21
-384.80
31
-271.08
0
LINE
8
CentreLine
10
139.62
20
-384.80
30
-271.08
11
139.62
21
-384.80
31
-274.09
0
LINE
8
CentreLine
10
139.62
20
-384.80
30
-274.09
11
139.78
21
-389.43
31
-276.25
0
LINE
8
CentreLine
10
139.78
20
-389.43
30
-276.25
11
141.03
21
-392.25
31
-275.59
0
LINE
8
CentreLine
10
141.03
20
-392.25
30
-275.59
11
140.52
21
-393.83
31
-277.80
0
LINE
8
CentreLine
10
140.52
20
-393.83
30
-277.80
11
142.89
21
-401.14
31
-277.40
0
LINE
8
CentreLine
10
142.89
20
-401.14
30
-277.40
11
139.06
21
-405.86
31
-282.68
0
LINE
8
CentreLine
10
139.06
20
-405.86
30
-282.68
11
141.27
21
-411.93
31
-283.02
0
LINE
8
CentreLine
10
141.27
20
-411.93
30
-283.02
11
142.69
21
-410.56
31
-283.55
0
LINE
8
CentreLine
10
142.69
20
-410.56
30
-283.55
11
148.18
21
-409.89
31
-283.07
0
LINE
8
CentreLine
10
148.18
20
-409.89
30
-283.07
11
150.93
21
-411.00
31
-282.81
0
LINE
8
CentreLine
10
150.93
20
-411.00
30
-282.81
11
155.41
21
-410.61
31
-283.76
0
LINE
8
CentreLine
10
155.41
20
-410.61
30
-283.76
11
159.14
21
-412.11
31
-284.40
0
LINE
8
CentreLine
10
159.14
20
-412.11
30
-284.40
11
164.41
21
-409.77
31
-283.59
0
LINE
8
CentreLine
10
164.41
20
-409.77
30
-283.59
11
170.62
21
-402.62
31
-283.42
0
LINE
8
CentreLine
10
170.62
20
-402.62
30
-283.42
11
169.95
21
-397.83
31
-285.68
0
LINE
8
CentreLine
10
169.95
20
-397.83
30
-285.68
11
173.50
21
-398.98
31
-285.75
0
LINE
8
CentreLine
10
173.50
20
-398.98
30
-285.75
11
175.41
21
-403.07
31
-285.51
0
LINE
8
CentreLine
10
175.41
20
-403.07
30
-285.51
11
180.58
21
-398.41
31
-285.75
0
LINE
8
CentreLine
10
180.58
20
-398.41
30
-285.75
11
172.50
21
-386.86
31
-280.62
0
LINE
8
CentreLine
10
164.41
20
-409.77
30
-283.59
11
165.59
21
-413.01
31
-283.41
0
LINE
8
CentreLine
10
165.59
20
-413.01
30
-283.41
11
165.08
21
-422.70
31
-283.24
0
LINE
8
CentreLine
10
165.08
20
-422.70
30
-283.24
11
169.42
21
-429.38
31
-281.98
0
LINE
8
CentreLine
10
169.42
20
-429.38
30
-281.98
11
170.13
21
-428.90
31
-280.88
0
LINE
8
CentreLine
10
170.13
20
-428.90
30
-280.88
11
174.84
21
-428.57
31
-279.70
0
LINE
8
CentreLine
10
174.84
20
-428.57
30
-279.70
11
179.11
21
-427.66
31
-278.62
0
LINE
8
CentreLine
10
179.11
20
-427.66
30
-278.62
11
180.36
21
-429.91
31
-277.13
0
LINE
8
CentreLine
10
180.36
20
-429.91
30
-277.13
11
180.05
21
-433.48
31
-275.83
0
LINE
8
CentreLine
10
180.05
20
-433.48
30
-275.83
11
180.15
21
-436.45
31
-275.83
0
LINE
8
CentreLine
10
180.15
20
-436.45
30
-275.83
11
178.77
21
-447.70
31
-275.43
0
LINE
8
CentreLine
10
178.77
20
-447.70
30
-275.43
11
179.59
21
-449.96
31
-275.43
0
LINE
8
CentreLine
10
179.59
20
-449.96
30
-275.43
11
181.69
21
-449.40
31
-275.66
0
LINE
8
CentreLine
10
181.69
20
-449.40
30
-275.66
11
182.95
21
-451.41
31
-274.98
0
LINE
8
CentreLine
10
182.95
20
-451.41
30
-274.98
11
185.30
21
-452.13
31
-274.81
0
LINE
8
CentreLine
10
185.30
20
-452.13
30
-274.81
11
188.42
21
-456.27
31
-275.08
0
LINE
8
CentreLine
10
178.77
20
-447.70
30
-275.43
11
181.95
21
-454.23
31
-275.43
0
LINE
8
CentreLine
10
135.25
20
-345.57
30
-252.35
11
137.55
21
-347.80
31
-251.96
0
LINE
8
CentreLine
10
137.55
20
-347.80
30
-251.96
11
129.95
21
-342.47
31
-252.61
0
LINE
8
CentreLine
10
129.95
20
-342.47
30
-252.61
11
130.18
21
-335.66
31
-251.28
0
LINE
8
CentreLine
10
130.18
20
-335.66
30
-251.28
11
126.60
21
-328.93
31
-253.33
0
LINE
8
CentreLine
10
126.60
20
-328.93
30
-253.33
11
126.13
21
-323.60
31
-250.60
0
LINE
8
CentreLine
10
126.13
20
-323.60
30
-250.60
11
131.58
21
-321.40
31
-249.67
0
LINE
8
CentreLine
10
131.58
20
-321.40
30
-249.67
11
126.18
21
-319.95
31
-251.28
0
LINE
8
CentreLine
10
126.18
20
-319.95
30
-251.28
11
120.89
21
-315.96
31
-249.75
0
LINE
8
CentreLine
10
120.89
20
-315.96
30
-249.75
11
114.48
21
-311.96
31
-250.14
0
LINE
8
CentreLine
10
126.13
20
-323.60
30
-250.60
11
129.75
21
-328.06
31
-253.92
0
LINE
8
CentreLine
10
129.75
20
-328.06
30
-253.92
11
129.16
21
-327.04
31
-254.10
0
LINE
8
CentreLine
10
129.16
20
-327.04
30
-254.10
11
129.16
21
-327.04
31
-259.76
0
LINE
8
CentreLine
10
129.16
20
-327.04
30
-259.76
11
124.29
21
-325.65
31
-260.21
0
LINE
8
CentreLine
10
124.29
20
-325.65
30
-260.21
11
125.34
21
-324.08
31
-260.44
0
LINE
8
CentreLine
10
125.34
20
-324.08
30
-260.44
11
122.96
21
-319.41
31
-260.35
0
LINE
8
CentreLine
10
122.96
20
-319.41
30
-260.35
11
123.12
21
-316.77
31
-259.59
0
LINE
8
CentreLine
10
123.12
20
-316.77
30
-259.59
11
121.99
21
-316.83
31
-259.55
0
LINE
8
CentreLine
10
121.99
20
-316.83
30
-259.55
11
118.95
21
-313.20
31
-259.96
0
LINE
8
CentreLine
10
118.95
20
-313.20
30
-259.96
11
115.61
21
-309.49
31
-260.14
0
LINE
8
CentreLine
10
115.61
20
-309.49
30
-260.14
11
118.24
21
-304.74
31
-258.48
0
LINE
8
CentreLine
10
118.24
20
-304.74
30
-258.48
11
111.79
21
-300.22
31
-259.87
0
LINE
8
CentreLine
10
111.79
20
-300.22
30
-259.87
11
111.01
21
-297.33
31
-260.34
0
LINE
8
CentreLine
10
111.01
20
-297.33
30
-260.34
11
108.94
21
-292.44
31
-259.69
0
LINE
8
CentreLine
10
108.94
20
-292.44
30
-259.69
11
107.19
21
-287.05
31
-259.09
0
LINE
8
CentreLine
10
107.19
20
-287.05
30
-259.09
11
107.40
21
-284.58
31
-256.62
0
LINE
8
CentreLine
10
107.40
20
-284.58
30
-256.62
11
106.18
21
-280.30
31
-255.83
0
LINE
8
CentreLine
10
106.18
20
-280.30
30
-255.83
11
102.60
21
-268.60
31
-258.88
0
LINE
8
CentreLine
10
102.60
20
-268.60
30
-258.88
11
 97.71
21
-251.55
31
-264.65
0
LINE
8
CentreLine
10
 97.71
20
-251.55
30
-264.65
11
 90.96
21
-245.69
31
-271.14
0
LINE
8
CentreLine
10
 90.96
20
-245.69
30
-271.14
11
 87.23
21
-255.94
31
-273.86
0
LINE
8
CentreLine
10
 87.23
20
-255.94
30
-273.86
11
 77.97
21
-266.59
31
-279.00
0
LINE
8
CentreLine
10
 77.97
20
-266.59
30
-279.00
11
 70.99
21
-264.85
31
-279.00
0
LINE
8
CentreLine
10
 70.99
20
-264.85
30
-279.00
11
 67.34
21
-262.00
31
-280.50
0
LINE
8
CentreLine
10
 67.34
20
-262.00
30
-280.50
11
 62.85
21
-260.63
31
-282.03
0
LINE
8
CentreLine
10
 62.85
20
-260.63
30
-282.03
11
 62.38
21
-258.73
31
-282.44
0
LINE
8
CentreLine
10
 62.38
20
-258.73
30
-282.44
11
 58.35
21
-255.59
31
-287.73
0
LINE
8
CentreLine
10
 58.35
20
-255.59
30
-287.73
11
 39.37
21
-248.67
31
-291.29
0
LINE
8
CentreLine
10
 39.37
20
-248.67
30
-291.29
11
 31.66
21
-243.86
31
-291.45
0
LINE
8
CentreLine
10
 31.66
20
-243.86
30
-291.45
11
 23.61
21
-242.00
31
-297.23
0
LINE
8
CentreLine
10
 23.61
20
-242.00
30
-297.23
11
  6.70
21
-233.01
31
-304.20
0
LINE
8
CentreLine
10
  6.70
20
-233.01
30
-304.20
11
  2.50
21
-231.89
31
-305.37
0
LINE
8
CentreLine
10
  2.50
20
-231.89
30
-305.37
11
  3.75
21
-226.04
31
-305.68
0
LINE
8
CentreLine
10
  3.75
20
-226.04
30
-305.68
11
 11.52
21
-225.36
31
-304.31
0
LINE
8
CentreLine
10
 11.52
20
-225.36
30
-304.31
11
  9.76
21
-217.75
31
-305.82
0
LINE
8
CentreLine
10
  9.76
20
-217.75
30
-305.82
11
 12.04
21
-209.23
31
-308.69
0
LINE
8
CentreLine
10
 12.04
20
-209.23
30
-308.69
11
 14.88
21
-204.31
31
-310.65
0
LINE
8
CentreLine
10
 14.88
20
-204.31
30
-310.65
11
  7.73
21
-201.85
31
-312.53
0
LINE
8
CentreLine
10
  7.73
20
-201.85
30
-312.53
11
  5.75
21
-199.73
31
-312.48
0
LINE
8
CentreLine
10
  5.75
20
-199.73
30
-312.48
11
  2.25
21
-194.73
31
-318.17
0
LINE
8
CentreLine
10
  2.25
20
-194.73
30
-318.17
11
 16.78
21
-207.82
31
-321.27
0
LINE
8
CentreLine
10
 16.78
20
-207.82
30
-321.27
11
 10.32
21
-211.55
31
-322.72
0
LINE
8
CentreLine
10
 10.32
20
-211.55
30
-322.72
11
  8.22
21
-216.75
31
-328.73
0
LINE
8
CentreLine
10
  8.22
20
-216.75
30
-328.73
11
  0.66
21
-205.10
31
-335.80
0
LINE
8
CentreLine
10
  0.66
20
-205.10
30
-335.80
11
  4.35
21
-200.03
31
-335.80
0
LINE
8
CentreLine
10
  4.35
20
-200.03
30
-335.80
11
  3.90
21
-197.51
31
-334.38
0
LINE
8
CentreLine
10
  3.90
20
-197.51
30
-334.38
11
 -0.14
21
-193.02
31
-334.38
0
LINE
8
CentreLine
10
 -0.14
20
-193.02
30
-334.38
11
-11.88
21
-192.40
31
-331.45
0
LINE
8
CentreLine
10
-11.88
20
-192.40
30
-331.45
11
-15.47
21
-186.44
31
-330.72
0
LINE
8
CentreLine
10
-15.47
20
-186.44
30
-330.72
11
-13.76
21
-180.84
31
-330.31
0
LINE
8
CentreLine
10
-13.76
20
-180.84
30
-330.31
11
-23.10
21
-171.49
31
-326.77
0
LINE
8
CentreLine
10
-23.10
20
-171.49
30
-326.77
11
-16.67
21
-164.35
31
-324.19
0
LINE
8
CentreLine
10
-16.67
20
-164.35
30
-324.19
11
-20.39
21
-158.63
31
-321.30
0
LINE
8
CentreLine
10
-20.39
20
-158.63
30
-321.30
11
-19.86
21
-151.13
31
-317.95
0
LINE
8
CentreLine
10
-19.86
20
-151.13
30
-317.95
11
-20.11
21
-148.26
31
-318.89
0
LINE
8
CentreLine
10
-20.11
20
-148.26
30
-318.89
11
-24.00
21
-146.01
31
-317.93
0
LINE
8
CentreLine
10
-24.00
20
-146.01
30
-317.93
11
-16.36
21
-123.82
31
-303.82
0
LINE
8
CentreLine
10
-16.36
20
-123.82
30
-303.82
11
-13.98
21
-118.73
31
-301.44
0
LINE
8
CentreLine
10
-13.98
20
-118.73
30
-301.44
11
-21.61
21
-123.13
31
-307.84
0
LINE
8
CentreLine
10
-21.61
20
-123.13
30
-307.84
11
-23.32
21
-123.72
31
-306.71
0
LINE
8
CentreLine
10
-23.32
20
-123.72
30
-306.71
11
-31.21
21
-126.75
31
-310.83
0
LINE
8
CentreLine
10
-31.21
20
-126.75
30
-310.83
11
-38.89
21
-122.66
31
-320.84
0
LINE
8
CentreLine
10
-38.89
20
-122.66
30
-320.84
11
-45.32
21
-122.21
31
-322.21
0
LINE
8
CentreLine
10
-45.32
20
-122.21
30
-322.21
11
-63.80
21
-136.65
31
-330.75
0
LINE
8
CentreLine
10
-63.80
20
-136.65
30
-330.75
11
-72.36
21
-141.40
31
-337.35
0
LINE
8
CentreLine
10
-72.36
20
-141.40
30
-337.35
11
-83.26
21
-134.59
31
-326.17
0
LINE
8
CentreLine
10
165.08
20
-422.70
30
-283.24
11
166.54
21
-428.13
31
-285.28
0
LINE
8
CentreLine
10
166.54
20
-428.13
30
-285.28
11
166.23
21
-433.91
31
-286.73
0
LINE
8
CentreLine
10
166.23
20
-433.91
30
-286.73
11
165.83
21
-439.68
31
-286.93
0
LINE
8
CentreLine
10
165.83
20
-439.68
30
-286.93
11
166.21
21
-437.71
31
-289.80
0
LINE
8
CentreLine
10
166.21
20
-437.71
30
-289.80
11
168.80
21
-441.85
31
-290.22
0
LINE
8
CentreLine
10
168.80
20
-441.85
30
-290.22
11
171.49
21
-444.27
31
-289.91
0
LINE
8
CentreLine
10
171.49
20
-444.27
30
-289.91
11
171.43
21
-447.58
31
-290.31
0
LINE
8
CentreLine
10
171.43
20
-447.58
30
-290.31
11
174.56
21
-452.05
31
-290.22
0
LINE
8
CentreLine
10
174.56
20
-452.05
30
-290.22
11
174.56
21
-452.05
31
-290.96
0
LINE
8
CentreLine
10
174.56
20
-452.05
30
-290.96
11
178.20
21
-454.32
31
-291.26
0
LINE
8
CentreLine
10
178.20
20
-454.32
30
-291.26
11
184.77
21
-461.63
31
-290.23
0
LINE
8
CentreLine
10
184.77
20
-461.63
30
-290.23
11
184.16
21
-454.60
31
-291.60
0
LINE
8
CentreLine
10
184.16
20
-454.60
30
-291.60
11
187.33
21
-455.40
31
-291.60
0
LINE
8
CentreLine
10
187.33
20
-455.40
30
-291.60
11
188.65
21
-454.97
31
-291.40
0
LINE
8
CentreLine
10
188.65
20
-454.97
30
-291.40
11
192.15
21
-455.27
31
-290.32
0
LINE
8
CentreLine
10
192.15
20
-455.27
30
-290.32
11
196.19
21
-459.03
31
-290.61
0
LINE
8
CentreLine
10
196.19
20
-459.03
30
-290.61
11
198.47
21
-459.86
31
-289.16
0
LINE
8
CentreLine
10
198.47
20
-459.86
30
-289.16
11
201.35
21
-462.55
31
-288.03
0
LINE
8
CentreLine
10
201.35
20
-462.55
30
-288.03
11
202.42
21
-461.77
31
-289.50
0
LINE
8
CentreLine
10
202.42
20
-461.77
30
-289.50
11
205.27
21
-460.95
31
-288.05
0
LINE
8
CentreLine
10
205.27
20
-460.95
30
-288.05
11
208.96
21
-463.84
31
-287.31
0
LINE
8
CentreLine
10
208.96
20
-463.84
30
-287.31
11
212.29
21
-466.44
31
-285.77
0
LINE
8
CentreLine
10
212.29
20
-466.44
30
-285.77
11
211.37
21
-469.87
31
-287.50
0
LINE
8
CentreLine
10
211.37
20
-469.87
30
-287.50
11
216.84
21
-472.90
31
-286.40
0
LINE
8
CentreLine
10
216.84
20
-472.90
30
-286.40
11
217.62
21
-470.37
31
-285.64
0
LINE
8
CentreLine
10
171.43
20
-447.58
30
-290.31
11
171.14
21
-450.88
31
-299.41
0
LINE
8
CentreLine
10
171.14
20
-450.88
30
-299.41
11
171.66
21
-456.87
31
-300.15
0
LINE
8
CentreLine
10
171.66
20
-456.87
30
-300.15
11
171.66
21
-456.87
31
-307.49
0
LINE
8
CentreLine
10
171.66
20
-456.87
30
-307.49
11
177.65
21
-438.45
31
-309.87
0
LINE
8
CentreLine
10
177.65
20
-438.45
30
-309.87
11
177.99
21
-428.65
31
-309.52
0
LINE
8
CentreLine
10
177.99
20
-428.65
30
-309.52
11
177.08
21
-421.27
31
-309.52
0
LINE
8
CentreLine
10
177.08
20
-421.27
30
-309.52
11
175.51
21
-414.46
31
-309.28
0
LINE
8
CentreLine
10
175.51
20
-414.46
30
-309.28
11
175.51
21
-404.16
31
-309.10
0
LINE
8
CentreLine
10
175.51
20
-404.16
30
-309.10
11
164.77
21
-390.41
31
-309.10
0
LINE
8
CentreLine
10
-13.76
20
-180.84
30
-330.31
11
-11.95
21
-178.35
31
-332.71
0
LINE
8
CentreLine
10
-11.95
20
-178.35
30
-332.71
11
-10.14
21
-179.98
31
-334.24
0
LINE
8
CentreLine
10
-10.14
20
-179.98
30
-334.24
11
 -2.98
21
-183.63
31
-334.24
0
LINE
8
CentreLine
10
 -2.98
20
-183.63
30
-334.24
11
 -0.91
21
-183.52
31
-335.44
0
LINE
8
CentreLine
10
 -0.91
20
-183.52
30
-335.44
11
  1.46
21
-180.50
31
-332.85
0
LINE
8
CentreLine
10
  1.46
20
-180.50
30
-332.85
11
 17.51
21
-168.83
31
-331.81
0
LINE
8
CentreLine
10
 17.51
20
-168.83
30
-331.81
11
 20.11
21
-165.26
31
-330.79
0
LINE
8
CentreLine
10
 20.11
20
-165.26
30
-330.79
11
 22.62
21
-166.28
31
-334.66
0
LINE
8
CentreLine
10
 22.62
20
-166.28
30
-334.66
11
 28.03
21
-165.90
31
-336.53
0
LINE
8
CentreLine
10
-72.36
20
-141.40
30
-337.35
11
-67.54
21
-135.23
31
-340.99
0
LINE
8
CentreLine
10
-67.54
20
-135.23
30
-340.99
11
-63.79
21
-135.89
31
-340.99
0
LINE
8
CentreLine
10
-63.79
20
-135.89
30
-340.99
11
-59.25
21
-130.86
31
-339.18
0
LINE
8
CentreLine
10
-59.25
20
-130.86
30
-339.18
11
-49.17
21
-113.39
31
-332.62
0
LINE
8
CentreLine
10
-49.17
20
-113.39
30
-332.62
11
-52.56
21
-108.54
31
-333.56
0
LINE
8
CentreLine
10
-52.56
20
-108.54
30
-333.56
11
-50.25
21
-101.83
31
-332.05
0
LINE
8
CentreLine
10
-50.25
20
-101.83
30
-332.05
11
-47.29
21
-96.02
31
-334.04
0
LINE
8
CentreLine
10
-47.29
20
-96.02
30
-334.04
11
-46.15
21
-94.84
31
-334.84
0
LINE
8
CentreLine
10
-46.15
20
-94.84
30
-334.84
11
-48.46
21
-86.79
31
-345.57
0
LINE
8
CentreLine
10
-48.46
20
-86.79
30
-345.57
11
-51.85
21
-86.13
31
-344.31
0
LINE
8
CentreLine
10
-51.85
20
-86.13
30
-344.31
11
-59.02
21
-83.80
31
-345.91
0
LINE
8
CentreLine
10
-59.02
20
-83.80
30
-345.91
11
-56.25
21
-74.15
31
-342.65
0
LINE
8
CentreLine
10
-56.25
20
-74.15
30
-342.65
11
-54.33
21
-69.83
31
-347.38
0
LINE
8
CentreLine
10
-54.33
20
-69.83
30
-347.38
11
-50.53
21
-66.29
31
-349.59
0
LINE
8
CentreLine
10
-50.53
20
-66.29
30
-349.59
11
-50.58
21
-63.59
31
-349.40
0
LINE
8
CentreLine
10
-50.58
20
-63.59
30
-349.40
11
-44.50
21
-57.29
31
-346.21
0
LINE
8
CentreLine
10
-44.50
20
-57.29
30
-346.21
11
-45.37
21
-49.04
31
-343.51
0
LINE
8
CentreLine
10
-45.37
20
-49.04
30
-343.51
11
-37.64
21
-29.91
31
-331.60
0
LINE
8
CentreLine
10
-37.64
20
-29.91
30
-331.60
11
-31.30
21
-25.13
31
-328.56
0
LINE
8
CentreLine
10
-31.30
20
-25.13
30
-328.56
11
-29.43
21
 -9.85
31
-316.53
0
LINE
8
CentreLine
10
-29.43
20
 -9.85
30
-316.53
11
-26.83
21
 -1.36
31
-312.76
0
LINE
8
CentreLine
10
-26.83
20
 -1.36
30
-312.76
11
-33.18
21
 15.18
31
-307.00
0
LINE
8
CentreLine
10
-33.18
20
 15.18
30
-307.00
11
-34.65
21
 23.55
31
-301.05
0
LINE
8
CentreLine
10
-34.65
20
 23.55
30
-301.05
11
-25.05
21
 22.88
31
-296.56
0
LINE
8
CentreLine
10
-25.05
20
 22.88
30
-296.56
11
-28.55
21
 35.92
31
-293.20
0
LINE
8
CentreLine
10
-28.55
20
 35.92
30
-293.20
11
-35.63
21
 44.98
31
-290.54
0
LINE
8
CentreLine
10
-35.63
20
 44.98
30
-290.54
11
-37.59
21
 73.01
31
-277.44
0
LINE
8
CentreLine
10
-37.59
20
 73.01
30
-277.44
11
-35.52
21
 77.07
31
-276.13
0
LINE
8
CentreLine
10
-35.52
20
 77.07
30
-276.13
11
-35.77
21
 91.21
31
-275.15
0
LINE
8
CentreLine
10
-35.77
20
 91.21
30
-275.15
11
-37.65
21
100.91
31
-272.13
0
LINE
8
CentreLine
10
-37.65
20
100.91
30
-272.13
11
-41.92
21
108.62
31
-269.60
0
LINE
8
CentreLine
10
-41.92
20
108.62
30
-269.60
11
-42.85
21
113.38
31
-264.75
0
LINE
8
CentreLine
10
-42.85
20
113.38
30
-264.75
11
-43.30
21
119.78
31
-262.42
0
LINE
8
CentreLine
10
-43.30
20
119.78
30
-262.42
11
-52.92
21
135.19
31
-262.42
0
LINE
8
CentreLine
10
-52.92
20
135.19
30
-262.42
11
-57.31
21
131.38
31
-269.34
0
LINE
8
CentreLine
10
-57.31
20
131.38
30
-269.34
11
-66.85
21
133.76
31
-272.16
0
LINE
8
CentreLine
10
-66.85
20
133.76
30
-272.16
11
-79.45
21
139.11
31
-272.16
0
LINE
8
CentreLine
10
-79.45
20
139.11
30
-272.16
11
-82.25
21
142.33
31
-271.17
0
LINE
8
CentreLine
10
-82.25
20
142.33
30
-271.17
11
-87.59
21
143.37
31
-274.19
0
LINE
8
CentreLine
10
-87.59
20
143.37
30
-274.19
11
-91.21
21
144.90
31
-274.46
0
LINE
8
CentreLine
10
-91.21
20
144.90
30
-274.46
11
-93.25
21
144.58
31
-276.32
0
LINE
8
CentreLine
10
-93.25
20
144.58
30
-276.32
11
-93.56
21
140.97
31
-277.79
0
LINE
8
CentreLine
10
-93.56
20
140.97
30
-277.79
11
-95.68
21
138.05
31
-281.79
0
LINE
8
CentreLine
10
-95.68
20
138.05
30
-281.79
11
-100.42
21
141.89
31
-285.75
0
LINE
8
CentreLine
10
-100.42
20
141.89
30
-285.75
11
-98.92
21
145.10
31
-285.75
0
LINE
8
CentreLine
10
-98.92
20
145.10
30
-285.75
11
-104.55
21
145.70
31
-289.43
0
LINE
8
CentreLine
10
-104.55
20
145.70
30
-289.43
11
-110.73
21
148.32
31
-294.67
0
LINE
8
CentreLine
10
-110.73
20
148.32
30
-294.67
11
-113.08
21
147.60
31
-296.39
0
LINE
8
CentreLine
10
-113.08
20
147.60
30
-296.39
11
-115.09
21
146.39
31
-300.45
0
LINE
8
CentreLine
10
-115.09
20
146.39
30
-300.45
11
-115.09
21
146.39
31
-305.84
0
LINE
8
CentreLine
10
-115.09
20
146.39
30
-305.84
11
-116.13
21
148.62
31
-306.28
0
LINE
8
CentreLine
10
-116.13
20
148.62
30
-306.28
11
-124.40
21
147.32
31
-313.55
0
LINE
8
CentreLine
10
-124.40
20
147.32
30
-313.55
11
-132.23
21
151.66
31
-319.15
0
LINE
8
CentreLine
10
-132.23
20
151.66
30
-319.15
11
-133.40
21
150.78
31
-320.89
0
LINE
8
CentreLine
10
-133.40
20
150.78
30
-320.89
11
-133.98
21
151.97
31
-323.39
0
LINE
8
CentreLine
10
-133.98
20
151.97
30
-323.39
11
-134.60
21
152.46
31
-323.79
0
LINE
8
CentreLine
10
-134.60
20
152.46
30
-323.79
11
-135.41
21
153.61
31
-326.81
0
LINE
8
CentreLine
10
-135.41
20
153.61
30
-326.81
11
-140.12
21
163.27
31
-328.90
0
LINE
8
CentreLine
10
-140.12
20
163.27
30
-328.90
11
-144.05
21
176.11
31
-329.60
0
LINE
8
CentreLine
10
-144.05
20
176.11
30
-329.60
11
-146.82
21
182.99
31
-328.56
0
LINE
8
CentreLine
10
-146.82
20
182.99
30
-328.56
11
-148.70
21
190.01
31
-334.24
0
LINE
8
CentreLine
10
-148.70
20
190.01
30
-334.24
11
-150.18
21
193.31
31
-334.55
0
LINE
8
CentreLine
10
-150.18
20
193.31
30
-334.55
11
-151.63
21
200.16
31
-334.92
0
LINE
8
CentreLine
10
-151.63
20
200.16
30
-334.92
11
-151.89
21
203.80
31
-333.73
0
LINE
8
CentreLine
10
-151.89
20
203.80
30
-333.73
11
-158.18
21
227.29
31
-333.73
0
LINE
8
CentreLine
10
-158.18
20
227.29
30
-333.73
11
-162.42
21
251.33
31
-332.45
0
LINE
8
CentreLine
10
-162.42
20
251.33
30
-332.45
11
-163.89
21
257.22
31
-328.20
0
LINE
8
CentreLine
10
-163.89
20
257.22
30
-328.20
11
-166.47
21
265.16
31
-325.80
0
LINE
8
CentreLine
10
-166.47
20
265.16
30
-325.80
11
-165.22
21
273.00
31
-323.97
0
LINE
8
CentreLine
10
-165.22
20
273.00
30
-323.97
11
-163.16
21
287.67
31
-325.79
0
LINE
8
CentreLine
10
-163.16
20
287.67
30
-325.79
11
-164.26
21
295.46
31
-329.29
0
LINE
8
CentreLine
10
-164.26
20
295.46
30
-329.29
11
-166.88
21
303.06
31
-333.75
0
LINE
8
CentreLine
10
-166.88
20
303.06
30
-333.75
11
-167.81
21
308.99
31
-335.13
0
LINE
8
CentreLine
10
-167.81
20
308.99
30
-335.13
11
-170.80
21
317.20
31
-334.83
0
LINE
8
CentreLine
10
-170.80
20
317.20
30
-334.83
11
-172.24
21
319.04
31
-335.32
0
LINE
8
CentreLine
10
-172.24
20
319.04
30
-335.32
11
-172.22
21
320.31
31
-335.69
0
LINE
8
CentreLine
10
-172.22
20
320.31
30
-335.69
11
-173.01
21
327.87
31
-344.13
0
LINE
8
CentreLine
10
-173.01
20
327.87
30
-344.13
11
-176.31
21
336.47
31
-349.03
0
LINE
8
CentreLine
10
-176.31
20
336.47
30
-349.03
11
-176.48
21
339.59
31
-352.26
0
LINE
8
CentreLine
10
-176.48
20
339.59
30
-352.26
11
-179.45
21
351.51
31
-353.77
0
LINE
8
CentreLine
10
-179.45
20
351.51
30
-353.77
11
-179.45
21
351.51
31
-349.52
0
LINE
8
CentreLine
10
-179.45
20
351.51
30
-349.52
11
-181.57
21
361.48
31
-351.13
0
LINE
8
CentreLine
10
-181.57
20
361.48
30
-351.13
11
-182.45
21
374.08
31
-351.35
0
LINE
8
CentreLine
10
-182.45
20
374.08
30
-351.35
11
-181.38
21
374.70
31
-351.98
0
LINE
8
CentreLine
10
-181.38
20
374.70
30
-351.98
11
-185.49
21
398.03
31
-343.36
0
LINE
8
CentreLine
10
-185.49
20
398.03
30
-343.36
11
-188.84
21
405.21
31
-342.53
0
LINE
8
CentreLine
10
-188.84
20
405.21
30
-342.53
11
-189.77
21
418.55
31
-335.71
0
LINE
8
CentreLine
10
-189.77
20
418.55
30
-335.71
11
-183.33
21
428.86
31
-318.97
0
LINE
8
CentreLine
10
180.58
20
-398.41
30
-285.75
11
187.03
21
-407.62
31
-285.95
0
LINE
8
CentreLine
10
187.03
20
-407.62
30
-285.95
11
192.68
21
-408.31
31
-285.55
0
LINE
8
CentreLine
10
192.68
20
-408.31
30
-285.55
11
199.10
21
-409.56
31
-284.40
0
LINE
8
CentreLine
10
199.10
20
-409.56
30
-284.40
11
201.78
21
-413.54
31
-287.17
0
LINE
8
CentreLine
10
201.78
20
-413.54
30
-287.17
11
203.68
21
-414.34
31
-287.96
0
LINE
8
CentreLine
10
203.68
20
-414.34
30
-287.96
11
203.94
21
-417.31
31
-288.87
0
LINE
8
CentreLine
10
203.94
20
-417.31
30
-288.87
11
214.13
21
-427.15
31
-291.11
0
LINE
8
CentreLine
10
214.13
20
-427.15
30
-291.11
11
213.14
21
-421.58
31
-289.60
0
LINE
8
CentreLine
10
213.14
20
-421.58
30
-289.60
11
220.28
21
-421.58
31
-287.82
0
LINE
8
CentreLine
10
220.28
20
-421.58
30
-287.82
11
224.51
21
-419.52
31
-290.12
0
LINE
8
CentreLine
10
224.51
20
-419.52
30
-290.12
11
225.23
21
-425.41
31
-290.95
0
LINE
8
CentreLine
10
225.23
20
-425.41
30
-290.95
11
224.59
21
-427.09
31
-294.33
0
LINE
8
CentreLine
10
224.59
20
-427.09
30
-294.33
11
225.20
21
-430.54
31
-293.45
0
LINE
8
CentreLine
10
225.20
20
-430.54
30
-293.45
11
235.37
21
-430.89
31
-294.70
0
LINE
8
CentreLine
10
235.37
20
-430.89
30
-294.70
11
240.17
21
-427.00
31
-294.27
0
LINE
8
CentreLine
10
240.17
20
-427.00
30
-294.27
11
233.50
21
-434.41
31
-296.39
0
LINE
8
CentreLine
10
233.50
20
-434.41
30
-296.39
11
236.84
21
-433.39
31
-297.32
0
LINE
8
CentreLine
10
236.84
20
-433.39
30
-297.32
11
240.19
21
-434.95
31
-298.67
0
LINE
8
CentreLine
10
240.19
20
-434.95
30
-298.67
11
248.08
21
-430.75
31
-301.92
0
LINE
8
CentreLine
10
248.08
20
-430.75
30
-301.92
11
248.88
21
-431.63
31
-302.05
0
LINE
8
CentreLine
10
248.88
20
-431.63
30
-302.05
11
248.64
21
-430.11
31
-303.48
0
LINE
8
CentreLine
10
248.64
20
-430.11
30
-303.48
11
249.17
21
-425.01
31
-306.21
0
LINE
8
CentreLine
10
249.17
20
-425.01
30
-306.21
11
248.87
21
-423.27
31
-306.92
0
LINE
8
CentreLine
10
248.87
20
-423.27
30
-306.92
11
243.98
21
-416.78
31
-311.06
0
LINE
8
CentreLine
10
243.98
20
-416.78
30
-311.06
11
243.38
21
-411.08
31
-317.43
0
LINE
8
CentreLine
10
243.38
20
-411.08
30
-317.43
11
237.64
21
-406.44
31
-318.86
0
LINE
8
CentreLine
10
237.64
20
-406.44
30
-318.86
11
236.57
21
-404.78
31
-322.02
0
LINE
8
CentreLine
10
236.57
20
-404.78
30
-322.02
11
231.48
21
-407.49
31
-322.22
0
LINE
8
CentreLine
10
231.48
20
-407.49
30
-322.22
11
226.40
21
-400.23
31
-323.46
0
LINE
8
CentreLine
10
226.40
20
-400.23
30
-323.46
11
221.90
21
-397.73
31
-324.56
0
LINE
8
CentreLine
10
221.90
20
-397.73
30
-324.56
11
221.90
21
-397.73
31
-324.98
0
LINE
8
CentreLine
10
221.90
20
-397.73
30
-324.98
11
218.83
21
-389.29
31
-325.13
0
LINE
8
CentreLine
10
218.83
20
-389.29
30
-325.13
11
215.05
21
-387.37
31
-327.20
0
LINE
8
CentreLine
10
215.05
20
-387.37
30
-327.20
11
214.71
21
-385.23
31
-327.59
0
LINE
8
CentreLine
10
214.71
20
-385.23
30
-327.59
11
213.56
21
-383.07
31
-331.98
0
LINE
8
CentreLine
10
213.56
20
-383.07
30
-331.98
11
211.93
21
-375.37
31
-333.37
0
LINE
8
CentreLine
10
180.58
20
-398.41
30
-285.75
11
177.51
21
-392.11
31
-282.92
0
LINE
8
CentreLine
10
177.51
20
-392.11
30
-282.92
11
175.48
21
-387.94
31
-281.50
0
LINE
8
CentreLine
10
175.48
20
-387.94
30
-281.50
11
172.65
21
-374.64
31
-275.16
0
LINE
8
CentreLine
10
172.65
20
-374.64
30
-275.16
11
171.38
21
-370.73
31
-273.33
0
LINE
8
CentreLine
10
171.38
20
-370.73
30
-273.33
11
167.21
21
-369.53
31
-271.40
0
LINE
8
CentreLine
10
167.21
20
-369.53
30
-271.40
11
163.89
21
-362.41
31
-270.58
0
LINE
8
CentreLine
10
163.89
20
-362.41
30
-270.58
11
164.44
21
-360.01
31
-270.14
0
LINE
8
CentreLine
10
164.44
20
-360.01
30
-270.14
11
159.53
21
-351.84
31
-269.47
0
LINE
8
CentreLine
10
159.53
20
-351.84
30
-269.47
11
157.18
21
-352.98
31
-268.52
0
LINE
8
CentreLine
10
157.18
20
-352.98
30
-268.52
11
157.18
21
-349.81
31
-267.91
0
LINE
8
CentreLine
10
157.18
20
-349.81
30
-267.91
11
154.94
21
-347.79
31
-268.77
0
LINE
8
CentreLine
10
154.94
20
-347.79
30
-268.77
11
154.94
21
-344.11
31
-268.45
0
LINE
8
CentreLine
10
154.94
20
-344.11
30
-268.45
11
154.11
21
-339.39
31
-269.29
0
LINE
8
CentreLine
10
154.11
20
-339.39
30
-269.29
11
154.03
21
-337.14
31
-269.10
0
LINE
8
CentreLine
10
154.03
20
-337.14
30
-269.10
11
154.03
21
-337.14
31
-268.38
0
LINE
8
CentreLine
10
154.03
20
-337.14
30
-268.38
11
151.76
21
-332.69
31
-268.38
0
LINE
8
CentreLine
10
151.76
20
-332.69
30
-268.38
11
148.61
21
-330.87
31
-268.12
0
LINE
8
CentreLine
10
148.61
20
-330.87
30
-268.12
11
148.80
21
-328.60
31
-268.82
0
LINE
8
CentreLine
10
148.80
20
-328.60
30
-268.82
11
150.61
21
-324.90
31
-266.34
0
LINE
8
CentreLine
10
150.61
20
-324.90
30
-266.34
11
151.65
21
-313.03
31
-267.17
0
LINE
8
CentreLine
10
151.65
20
-313.03
30
-267.17
11
150.05
21
-319.98
31
-271.80
0
LINE
8
CentreLine
10
150.05
20
-319.98
30
-271.80
11
143.90
21
-321.06
31
-274.98
0
LINE
8
CentreLine
10
240.17
20
-427.00
30
-294.27
11
242.63
21
-424.07
31
-294.27
0
LINE
8
CentreLine
10
242.63
20
-424.07
30
-294.27
11
245.89
21
-420.92
31
-296.38
0
LINE
8
CentreLine
10
245.89
20
-420.92
30
-296.38
11
254.77
21
-426.25
31
-295.29
0
LINE
8
CentreLine
10
254.77
20
-426.25
30
-295.29
11
255.01
21
-430.94
31
-296.29
0
LINE
8
CentreLine
10
255.01
20
-430.94
30
-296.29
11
255.31
21
-428.85
31
-298.64
0
LINE
8
CentreLine
10
255.31
20
-428.85
30
-298.64
11
259.09
21
-427.32
31
-298.64
0
LINE
8
CentreLine
10
259.09
20
-427.32
30
-298.64
11
259.09
21
-427.32
31
-302.14
0
LINE
8
CentreLine
10
259.09
20
-427.32
30
-302.14
11
258.83
21
-431.11
31
-303.92
0
LINE
8
CentreLine
10
258.83
20
-431.11
30
-303.92
11
259.14
21
-434.75
31
-308.42
0
LINE
8
CentreLine
10
259.14
20
-434.75
30
-308.42
11
257.55
21
-437.03
31
-311.01
0
LINE
8
CentreLine
10
257.55
20
-437.03
30
-311.01
11
258.23
21
-438.07
31
-310.01
0
LINE
8
CentreLine
10
258.23
20
-438.07
30
-310.01
11
257.59
21
-440.85
31
-311.22
0
LINE
8
CentreLine
10
257.59
20
-440.85
30
-311.22
11
257.74
21
-441.71
31
-312.79
0
LINE
8
CentreLine
10
257.74
20
-441.71
30
-312.79
11
258.20
21
-444.07
31
-314.41
0
LINE
8
CentreLine
10
258.20
20
-444.07
30
-314.41
11
259.33
21
-446.03
31
-314.02
0
LINE
8
CentreLine
10
259.33
20
-446.03
30
-314.02
11
259.33
21
-446.03
31
-322.22
0
LINE
8
CentreLine
10
-188.84
20
405.21
30
-342.53
11
-190.61
21
406.75
31
-343.02
0
LINE
8
CentreLine
10
-190.61
20
406.75
30
-343.02
11
-195.65
21
407.01
31
-349.49
0
LINE
8
CentreLine
10
-195.65
20
407.01
30
-349.49
11
-207.78
21
402.84
31
-360.64
0
LINE
8
CentreLine
10
-207.78
20
402.84
30
-360.64
11
-208.79
21
401.22
31
-361.26
0
LINE
8
CentreLine
10
-208.79
20
401.22
30
-361.26
11
-213.04
21
393.24
31
-365.28
0
LINE
8
CentreLine
10
-213.04
20
393.24
30
-365.28
11
-223.77
21
401.93
31
-370.87
0
LINE
8
CentreLine
10
-223.77
20
401.93
30
-370.87
11
-230.84
21
410.36
31
-374.23
0
LINE
8
CentreLine
10
-230.84
20
410.36
30
-374.23
11
-234.99
21
416.28
31
-375.24
0
LINE
8
CentreLine
10
-234.99
20
416.28
30
-375.24
11
-241.97
21
425.54
31
-374.84
0
LINE
8
CentreLine
10
-241.97
20
425.54
30
-374.84
11
-250.89
21
421.18
31
-378.26
0
LINE
8
CentreLine
10
-250.89
20
421.18
30
-378.26
11
-257.76
21
426.00
31
-377.96
0
LINE
8
CentreLine
10
-257.76
20
426.00
30
-377.96
11
-262.61
21
425.49
31
-381.64
0
LINE
8
CentreLine
10
-262.61
20
425.49
30
-381.64
11
-270.28
21
430.86
31
-384.15
0
LINE
8
CentreLine
10
-270.28
20
430.86
30
-384.15
11
-270.75
21
436.14
31
-383.96
0
LINE
8
CentreLine
10
-270.75
20
436.14
30
-383.96
11
-275.99
21
434.02
31
-386.25
0
LINE
8
CentreLine
10
-275.99
20
434.02
30
-386.25
11
-280.82
21
428.27
31
-389.28
0
LINE
8
CentreLine
10
-280.82
20
428.27
30
-389.28
11
-294.81
21
426.05
31
-393.88
0
LINE
8
CentreLine
10
-294.81
20
426.05
30
-393.88
11
-317.16
21
428.40
31
-400.76
0
LINE
8
CentreLine
10
138.24
20
-380.02
30
-271.87
11
141.42
21
-379.34
31
-270.81
0
LINE
8
CentreLine
10
141.42
20
-379.34
30
-270.81
11
144.47
21
-375.43
31
-266.34
0
LINE
8
CentreLine
10
144.47
20
-375.43
30
-266.34
11
145.46
21
-374.21
31
-266.34
0
LINE
8
CentreLine
10
145.46
20
-374.21
30
-266.34
11
143.78
21
-363.59
31
-260.62
0
LINE
8
CentreLine
10
143.78
20
-363.59
30
-260.62
11
144.14
21
-358.35
31
-258.92
0
LINE
8
CentreLine
10
151.65
20
-313.03
30
-267.17
11
152.55
21
-313.03
31
-267.17
0
LINE
8
CentreLine
10
152.55
20
-313.03
30
-267.17
11
152.55
21
-313.03
31
-252.57
0
LINE
8
CentreLine
10
152.55
20
-313.03
30
-252.57
11
150.82
21
-313.91
31
-252.85
0
LINE
8
CentreLine
10
150.82
20
-313.91
30
-252.85
11
148.67
21
-312.11
31
-253.24
0
LINE
8
CentreLine
10
148.67
20
-312.11
30
-253.24
11
149.47
21
-314.31
31
-253.78
0
LINE
8
CentreLine
10
149.47
20
-314.31
30
-253.78
11
147.43
21
-315.30
31
-254.39
0
LINE
8
CentreLine
10
147.43
20
-315.30
30
-254.39
11
145.50
21
-317.04
31
-255.95
0
LINE
8
CentreLine
10
145.50
20
-317.04
30
-255.95
11
140.52
21
-315.71
31
-257.62
0
LINE
8
CentreLine
10
140.52
20
-315.71
30
-257.62
11
137.11
21
-308.70
31
-257.35
0
LINE
8
CentreLine
10
137.11
20
-308.70
30
-257.35
11
134.08
21
-307.95
31
-258.43
0
LINE
8
CentreLine
10
134.08
20
-307.95
30
-258.43
11
131.77
21
-308.56
31
-258.98
0
LINE
8
CentreLine
10
-275.99
20
434.02
30
-386.25
11
-269.94
21
440.74
31
-383.48
0
LINE
8
CentreLine
10
-269.94
20
440.74
30
-383.48
11
-269.02
21
447.29
31
-382.44
0
LINE
8
CentreLine
10
-269.02
20
447.29
30
-382.44
11
-270.13
21
459.90
31
-380.88
0
LINE
8
CentreLine
10
-270.13
20
459.90
30
-380.88
11
-272.65
21
472.90
31
-373.23
0
LINE
8
CentreLine
10
232.80
20
-142.62
30
282.42
11
230.81
21
-144.99
31
282.47
0
LINE
8
CentreLine
10
230.81
20
-144.99
30
282.47
11
229.68
21
-140.76
31
279.40
0
LINE
8
CentreLine
10
229.68
20
-140.76
30
279.40
11
229.68
21
-140.76
31
268.95
0
LINE
8
CentreLine
10
229.68
20
-140.76
30
268.95
11
229.68
21
-140.76
31
261.30
0
LINE
8
CentreLine
10
229.68
20
-140.76
30
261.30
11
229.68
21
-140.76
31
254.10
0
LINE
8
CentreLine
10
229.68
20
-140.76
30
254.10
11
229.68
21
-140.76
31
244.60
0
LINE
8
CentreLine
10
229.68
20
-140.76
30
244.60
11
233.95
21
-141.51
31
243.84
0
LINE
8
CentreLine
10
233.95
20
-141.51
30
243.84
11
233.40
21
-135.23
31
242.73
0
LINE
8
CentreLine
10
233.40
20
-135.23
30
242.73
11
234.20
21
-130.67
31
243.97
0
LINE
8
CentreLine
10
234.20
20
-130.67
30
243.97
11
233.40
21
-129.71
31
241.80
0
LINE
8
CentreLine
10
233.40
20
-129.71
30
241.80
11
236.24
21
-128.95
31
242.06
0
LINE
8
CentreLine
10
236.24
20
-128.95
30
242.06
11
235.78
21
-126.37
31
239.44
0
LINE
8
CentreLine
10
235.78
20
-126.37
30
239.44
11
237.66
21
-123.12
31
239.44
0
LINE
8
CentreLine
10
237.66
20
-123.12
30
239.44
11
237.66
21
-120.45
31
239.07
0
LINE
8
CentreLine
10
237.66
20
-120.45
30
239.07
11
239.54
21
-117.19
31
238.06
0
LINE
8
CentreLine
10
239.54
20
-117.19
30
238.06
11
238.42
21
-110.84
31
238.06
0
LINE
8
CentreLine
10
238.42
20
-110.84
30
238.06
11
224.92
21
-112.02
31
238.06
0
LINE
8
CentreLine
10
224.92
20
-112.02
30
238.06
11
225.12
21
-110.89
31
237.96
0
LINE
8
CentreLine
10
225.12
20
-110.89
30
237.96
11
223.10
21
-107.38
31
237.89
0
LINE
8
CentreLine
10
223.10
20
-107.38
30
237.89
11
220.24
21
-106.88
31
237.89
0
LINE
8
CentreLine
10
220.24
20
-106.88
30
237.89
11
218.71
21
-105.60
31
235.51
0
LINE
8
CentreLine
10
218.71
20
-105.60
30
235.51
11
218.71
21
-104.40
31
235.41
0
LINE
8
CentreLine
10
218.71
20
-104.40
30
235.41
11
216.56
21
-104.40
31
235.41
0
LINE
8
CentreLine
10
216.56
20
-104.40
30
235.41
11
211.95
21
-104.72
31
237.87
0
LINE
8
CentreLine
10
211.95
20
-104.72
30
237.87
11
211.51
21
-105.80
31
237.09
0
LINE
8
CentreLine
10
211.51
20
-105.80
30
237.09
11
211.51
21
-105.80
31
231.67
0
LINE
8
CentreLine
10
211.51
20
-105.80
30
231.67
11
212.67
21
-106.05
31
231.94
0
LINE
8
CentreLine
10
212.67
20
-106.05
30
231.94
11
217.51
21
-104.66
31
229.37
0
LINE
8
CentreLine
10
217.51
20
-104.66
30
229.37
11
212.06
21
-106.02
31
225.99
0
LINE
8
CentreLine
10
212.06
20
-106.02
30
225.99
11
204.47
21
-108.05
31
227.95
0
LINE
8
CentreLine
10
204.47
20
-108.05
30
227.95
11
204.53
21
-111.67
31
226.26
0
LINE
8
CentreLine
10
204.53
20
-111.67
30
226.26
11
205.41
21
-116.18
31
225.62
0
LINE
8
CentreLine
10
205.41
20
-116.18
30
225.62
11
202.34
21
-116.77
31
225.62
0
LINE
8
CentreLine
10
205.41
20
-116.18
30
225.62
11
202.84
21
-116.54
31
226.17
0
LINE
8
CentreLine
10
202.84
20
-116.54
30
226.17
11
202.84
21
-116.54
31
223.17
0
LINE
8
CentreLine
10
202.84
20
-116.54
30
223.17
11
197.36
21
-112.56
31
227.24
0
LINE
8
CentreLine
10
197.36
20
-112.56
30
227.24
11
193.68
21
-104.29
31
228.19
0
LINE
8
CentreLine
10
193.68
20
-104.29
30
228.19
11
192.55
21
-103.88
31
228.19
0
LINE
8
CentreLine
10
192.55
20
-103.88
30
228.19
11
192.55
21
-103.88
31
215.09
0
LINE
8
CentreLine
10
192.55
20
-103.88
30
215.09
11
192.18
21
-104.56
31
217.98
0
LINE
8
CentreLine
10
192.18
20
-104.56
30
217.98
11
189.51
21
-109.18
31
216.65
0
LINE
8
CentreLine
10
189.51
20
-109.18
30
216.65
11
191.11
21
-111.75
31
215.49
0
LINE
8
CentreLine
10
191.11
20
-111.75
30
215.49
11
191.11
21
-111.75
31
213.09
0
LINE
8
CentreLine
10
191.11
20
-111.75
30
213.09
11
191.43
21
-112.18
31
212.94
0
LINE
8
CentreLine
10
191.43
20
-112.18
30
212.94
11
191.43
21
-113.87
31
213.14
0
LINE
8
CentreLine
10
191.43
20
-113.87
30
213.14
11
192.89
21
-117.15
31
213.08
0
LINE
8
CentreLine
10
192.89
20
-117.15
30
213.08
11
193.96
21
-119.55
31
214.20
0
LINE
8
CentreLine
10
193.96
20
-119.55
30
214.20
11
192.92
21
-121.88
31
213.70
0
LINE
8
CentreLine
10
192.92
20
-121.88
30
213.70
11
193.82
21
-124.37
31
214.77
0
LINE
8
CentreLine
10
193.82
20
-124.37
30
214.77
11
193.82
21
-124.37
31
208.47
0
LINE
8
CentreLine
10
193.82
20
-124.37
30
208.47
11
196.16
21
-124.91
31
208.47
0
LINE
8
CentreLine
10
196.16
20
-124.91
30
208.47
11
194.95
21
-128.06
31
208.47
0
LINE
8
CentreLine
10
194.95
20
-128.06
30
208.47
11
196.49
21
-128.75
31
205.77
0
LINE
8
CentreLine
10
196.49
20
-128.75
30
205.77
11
200.08
21
-129.12
31
206.09
0
LINE
8
CentreLine
10
200.08
20
-129.12
30
206.09
11
200.53
21
-131.25
31
205.54
0
LINE
8
CentreLine
10
200.53
20
-131.25
30
205.54
11
201.81
21
-134.97
31
205.61
0
LINE
8
CentreLine
10
201.81
20
-134.97
30
205.61
11
199.11
21
-135.70
31
208.51
0
LINE
8
CentreLine
10
201.81
20
-134.97
30
205.61
11
199.71
21
-135.31
31
206.79
0
LINE
8
CentreLine
10
199.71
20
-135.31
30
206.79
11
199.16
21
-137.38
31
206.64
0
LINE
8
CentreLine
10
199.16
20
-137.38
30
206.64
11
199.48
21
-137.96
31
205.99
0
LINE
8
CentreLine
10
199.48
20
-137.96
30
205.99
11
199.27
21
-140.33
31
205.62
0
LINE
8
CentreLine
10
199.27
20
-140.33
30
205.62
11
200.46
21
-140.74
31
205.64
0
LINE
8
CentreLine
10
200.46
20
-140.74
30
205.64
11
201.02
21
-143.37
31
205.59
0
LINE
8
CentreLine
10
201.02
20
-143.37
30
205.59
11
201.16
21
-147.36
31
206.67
0
LINE
8
CentreLine
10
201.16
20
-147.36
30
206.67
11
201.77
21
-147.39
31
206.04
0
LINE
8
CentreLine
10
201.77
20
-147.39
30
206.04
11
202.11
21
-147.87
31
205.49
0
LINE
8
CentreLine
10
202.11
20
-147.87
30
205.49
11
200.73
21
-149.78
31
205.49
0
LINE
8
CentreLine
10
200.73
20
-149.78
30
205.49
11
202.10
21
-154.02
31
204.54
0
LINE
8
CentreLine
10
202.10
20
-154.02
30
204.54
11
202.94
21
-154.27
31
204.19
0
LINE
8
CentreLine
10
202.94
20
-154.27
30
204.19
11
203.35
21
-157.23
31
203.66
0
LINE
8
CentreLine
10
203.35
20
-157.23
30
203.66
11
203.35
21
-157.23
31
193.96
0
LINE
8
CentreLine
10
203.35
20
-157.23
30
193.96
11
204.83
21
-163.15
31
195.95
0
LINE
8
CentreLine
10
204.83
20
-163.15
30
195.95
11
200.55
21
-162.55
31
196.79
0
LINE
8
CentreLine
10
200.55
20
-162.55
30
196.79
11
200.55
21
-162.55
31
189.99
0
LINE
8
CentreLine
10
200.55
20
-162.55
30
189.99
11
199.50
21
-165.77
31
191.29
0
LINE
8
CentreLine
10
199.50
20
-165.77
30
191.29
11
200.04
21
-168.82
31
189.64
0
LINE
8
CentreLine
10
200.04
20
-168.82
30
189.64
11
200.04
21
-172.67
31
189.64
0
LINE
8
CentreLine
10
200.04
20
-172.67
30
189.64
11
203.62
21
-172.29
31
188.81
0
LINE
8
CentreLine
10
203.62
20
-172.29
30
188.81
11
204.65
21
-176.14
31
187.12
0
LINE
8
CentreLine
10
204.65
20
-176.14
30
187.12
11
207.86
21
-177.70
31
180.94
0
LINE
8
CentreLine
10
207.86
20
-177.70
30
180.94
11
207.04
21
-178.87
31
180.24
0
LINE
8
CentreLine
10
207.04
20
-178.87
30
180.24
11
207.04
21
-178.87
31
171.41
0
LINE
8
CentreLine
10
207.04
20
-178.87
30
171.41
11
205.97
21
-180.53
31
170.77
0
LINE
8
CentreLine
10
205.97
20
-180.53
30
170.77
11
209.19
21
-184.37
31
168.11
0
LINE
8
CentreLine
10
209.19
20
-184.37
30
168.11
11
209.51
21
-187.01
31
168.57
0
LINE
8
CentreLine
10
209.51
20
-187.01
30
168.57
11
209.51
21
-187.01
31
155.97
0
LINE
8
CentreLine
10
209.51
20
-187.01
30
155.97
11
207.72
21
-188.04
31
157.43
0
LINE
8
CentreLine
10
207.72
20
-188.04
30
157.43
11
207.72
21
-188.04
31
147.18
0
LINE
8
CentreLine
10
207.72
20
-188.04
30
147.18
11
206.88
21
-187.44
31
147.36
0
LINE
8
CentreLine
10
206.88
20
-187.44
30
147.36
11
206.37
21
-191.64
31
145.20
0
LINE
8
CentreLine
10
206.37
20
-191.64
30
145.20
11
203.75
21
-194.26
31
144.61
0
LINE
8
CentreLine
10
203.75
20
-194.26
30
144.61
11
202.64
21
-194.16
31
144.89
0
LINE
8
CentreLine
10
202.64
20
-194.16
30
144.89
11
201.47
21
-195.10
31
144.52
0
LINE
8
CentreLine
10
201.47
20
-195.10
30
144.52
11
200.10
21
-194.61
31
143.84
0
LINE
8
CentreLine
10
200.10
20
-194.61
30
143.84
11
198.94
21
-196.05
31
143.84
0
LINE
8
CentreLine
10
198.94
20
-196.05
30
143.84
11
200.01
21
-197.16
31
142.91
0
LINE
8
CentreLine
10
200.01
20
-197.16
30
142.91
11
197.36
21
-198.94
31
142.69
0
LINE
8
CentreLine
10
197.36
20
-198.94
30
142.69
11
197.60
21
-199.89
31
143.08
0
LINE
8
CentreLine
10
197.60
20
-199.89
30
143.08
11
197.44
21
-202.23
31
143.08
0
LINE
8
CentreLine
10
197.44
20
-202.23
30
143.08
11
198.68
21
-202.95
31
142.50
0
LINE
8
CentreLine
10
198.68
20
-202.95
30
142.50
11
198.68
21
-202.95
31
127.19
0
LINE
8
CentreLine
10
198.68
20
-202.95
30
127.19
11
196.78
21
-205.88
31
127.44
0
LINE
8
CentreLine
10
196.78
20
-205.88
30
127.44
11
196.78
21
-205.88
31
117.44
0
LINE
8
CentreLine
10
196.78
20
-205.88
30
117.44
11
198.05
21
-206.61
31
118.06
0
LINE
8
CentreLine
10
198.05
20
-206.61
30
118.06
11
196.07
21
-209.56
31
118.06
0
LINE
8
CentreLine
10
196.07
20
-209.56
30
118.06
11
195.82
21
-215.00
31
118.06
0
LINE
8
CentreLine
10
195.82
20
-215.00
30
118.06
11
195.53
21
-215.71
31
118.06
0
LINE
8
CentreLine
10
195.53
20
-215.71
30
118.06
11
196.55
21
-216.48
31
117.27
0
LINE
8
CentreLine
10
196.55
20
-216.48
30
117.27
11
195.59
21
-221.89
31
116.98
0
LINE
8
CentreLine
10
195.59
20
-221.89
30
116.98
11
194.21
21
-219.91
31
115.47
0
LINE
8
CentreLine
10
194.21
20
-219.91
30
115.47
11
193.30
21
-219.39
31
115.36
0
LINE
8
CentreLine
10
193.30
20
-219.39
30
115.36
11
192.07
21
-216.63
31
112.23
0
LINE
8
CentreLine
10
192.07
20
-216.63
30
112.23
11
193.80
21
-217.62
31
112.09
0
LINE
8
CentreLine
10
204.83
20
-163.15
30
195.95
11
206.40
21
-161.14
31
195.36
0
LINE
8
CentreLine
10
206.40
20
-161.14
30
195.36
11
201.53
21
-157.60
31
195.78
0
LINE
8
CentreLine
10
201.53
20
-157.60
30
195.78
11
199.96
21
-159.05
31
196.00
0
LINE
8
CentreLine
10
199.96
20
-159.05
30
196.00
11
196.52
21
-159.30
31
195.58
0
LINE
8
CentreLine
10
196.52
20
-159.30
30
195.58
11
196.19
21
-163.95
31
192.06
0
LINE
8
CentreLine
10
196.19
20
-163.95
30
192.06
11
196.82
21
-162.22
31
192.13
0
LINE
8
CentreLine
10
196.82
20
-162.22
30
192.13
11
191.48
21
-161.85
31
190.79
0
LINE
8
CentreLine
10
191.48
20
-161.85
30
190.79
11
192.11
21
-164.37
31
190.05
0
LINE
8
CentreLine
10
277.06
20
-129.16
30
369.60
11
270.84
21
-117.46
31
372.66
0
LINE
8
CentreLine
10
196.19
20
-163.95
30
192.06
11
192.82
21
-163.71
31
194.17
0
LINE
8
CentreLine
10
192.82
20
-163.71
30
194.17
11
194.79
21
-167.74
31
192.63
0
LINE
8
CentreLine
10
194.79
20
-167.74
30
192.63
11
196.84
21
-167.85
31
191.59
0
LINE
8
CentreLine
10
196.84
20
-167.85
30
191.59
11
196.73
21
-169.41
31
192.81
0
LINE
8
CentreLine
10
196.73
20
-169.41
30
192.81
11
196.26
21
-167.80
31
192.55
0
LINE
8
CentreLine
10
196.26
20
-167.80
30
192.55
11
192.70
21
-172.70
31
191.37
0
LINE
8
CentreLine
10
192.70
20
-172.70
30
191.37
11
193.29
21
-174.24
31
191.28
0
LINE
8
CentreLine
10
193.29
20
-174.24
30
191.28
11
194.13
21
-176.21
31
188.98
0
LINE
8
CentreLine
10
194.13
20
-176.21
30
188.98
11
194.63
21
-177.14
31
186.38
0
LINE
8
CentreLine
10
194.63
20
-177.14
30
186.38
11
193.73
21
-180.73
31
184.73
0
LINE
8
CentreLine
10
193.73
20
-180.73
30
184.73
11
195.17
21
-181.70
31
183.06
0
LINE
8
CentreLine
10
195.17
20
-181.70
30
183.06
11
195.17
21
-185.29
31
181.07
0
LINE
8
CentreLine
10
195.17
20
-185.29
30
181.07
11
193.45
21
-186.21
31
180.55
0
LINE
8
CentreLine
10
193.45
20
-186.21
30
180.55
11
191.56
21
-186.17
31
179.97
0
LINE
8
CentreLine
10
191.56
20
-186.17
30
179.97
11
189.41
21
-189.13
31
177.21
0
LINE
8
CentreLine
10
189.41
20
-189.13
30
177.21
11
188.88
21
-190.13
31
175.08
0
LINE
8
CentreLine
10
188.88
20
-190.13
30
175.08
11
181.20
21
-192.78
31
170.20
0
LINE
8
CentreLine
10
181.20
20
-192.78
30
170.20
11
180.51
21
-191.80
31
169.88
0
LINE
8
CentreLine
10
180.51
20
-191.80
30
169.88
11
180.74
21
-196.25
31
162.75
0
LINE
8
CentreLine
10
180.74
20
-196.25
30
162.75
11
177.92
21
-202.59
31
159.21
0
LINE
8
CentreLine
10
177.92
20
-202.59
30
159.21
11
177.41
21
-205.21
31
158.24
0
LINE
8
CentreLine
10
177.41
20
-205.21
30
158.24
11
175.38
21
-204.34
31
155.51
0
LINE
8
CentreLine
10
175.38
20
-204.34
30
155.51
11
171.95
21
-208.29
31
150.97
0
LINE
8
CentreLine
10
171.95
20
-208.29
30
150.97
11
168.45
21
-206.81
31
150.77
0
LINE
8
CentreLine
10
168.45
20
-206.81
30
150.77
11
165.80
21
-208.40
31
144.95
0
LINE
8
CentreLine
10
165.80
20
-208.40
30
144.95
11
166.60
21
-206.60
31
147.21
0
LINE
8
CentreLine
10
166.60
20
-206.60
30
147.21
11
163.99
21
-206.88
31
146.15
0
LINE
8
CentreLine
10
163.99
20
-206.88
30
146.15
11
164.82
21
-206.78
31
142.20
0
LINE
8
CentreLine
10
164.82
20
-206.78
30
142.20
11
165.82
21
-207.08
31
138.01
0
LINE
8
CentreLine
10
165.82
20
-207.08
30
138.01
11
166.03
21
-209.07
31
137.08
0
LINE
8
CentreLine
10
166.03
20
-209.07
30
137.08
11
163.76
21
-209.43
31
137.24
0
LINE
8
CentreLine
10
163.76
20
-209.43
30
137.24
11
163.76
21
-209.43
31
118.14
0
LINE
8
CentreLine
10
163.76
20
-209.43
30
118.14
11
166.54
21
-208.74
31
119.07
000
ENDSEC
000
EOF
