0
SECTION
2
HEADER
9
$EXTMIN
10
-1164.370000
20
-400.760000
30
0.000000
9
$EXTMAX
10
1164.370000
20
400.760000
30
0.000000
9
$PDMODE
70
3
9
$PDSIZE
40
  0.80
0
ENDSEC
0
SECTION
2
TABLES
0
TABLE
2
LTYPE
70
10
0
LTYPE
2
CONTINUOUS
70
64
3
Continuous
72
65
73
0
40
0.0
0
LTYPE
2
DASHED
70
64
3
Dashed
72
65
73
2
40
2.5
49
1.25
49
-1.25
0
ENDTAB
0
TABLE
2
LAYER
70
10
0
LAYER
2
CentreLine
70
64
62
5
6
CONTINUOUS
0
LAYER
2
Stations
70
64
62
7
6
CONTINUOUS
0
LAYER
2
Labels
70
64
62
7
6
CONTINUOUS
0
LAYER
2
Surface
70
64
62
5
6
DASHED
0
LAYER
2
SurfaceStations
70
64
62
7
6
CONTINUOUS
0
LAYER
2
SurfaceLabels
70
64
62
7
6
CONTINUOUS
0
ENDTAB
0
ENDSEC
0
SECTION
2
ENTITIES
0
LINE
8
CentreLine
10
-1158.94
20
397.76
30
  0.00
11
-1164.37
21
400.76
31
  0.00
0
LINE
8
CentreLine
10
-1151.87
20
393.16
30
  0.00
11
-1158.94
21
397.76
31
  0.00
0
LINE
8
CentreLine
10
-1148.22
20
392.39
30
  0.00
11
-1151.87
21
393.16
31
  0.00
0
LINE
8
CentreLine
10
-1145.34
20
391.61
30
  0.00
11
-1148.22
21
392.39
31
  0.00
0
LINE
8
CentreLine
10
-1140.08
20
391.80
30
  0.00
11
-1145.34
21
391.61
31
  0.00
0
LINE
8
CentreLine
10
-1140.08
20
389.59
30
  0.00
11
-1140.08
21
391.80
31
  0.00
0
LINE
8
CentreLine
10
-1137.99
20
387.83
30
  0.00
11
-1140.08
21
389.59
31
  0.00
0
LINE
8
CentreLine
10
-1137.99
20
381.76
30
  0.00
11
-1137.99
21
387.83
31
  0.00
0
LINE
8
CentreLine
10
-1135.79
20
380.64
30
  0.00
11
-1137.99
21
381.76
31
  0.00
0
LINE
8
CentreLine
10
-1134.22
20
381.66
30
  0.00
11
-1135.79
21
380.64
31
  0.00
0
LINE
8
CentreLine
10
-1130.13
20
380.94
30
  0.00
11
-1134.22
21
381.66
31
  0.00
0
LINE
8
CentreLine
10
-1130.13
20
375.99
30
  0.00
11
-1130.13
21
380.94
31
  0.00
0
LINE
8
CentreLine
10
-1123.31
20
376.35
30
  0.00
11
-1130.13
21
375.99
31
  0.00
0
LINE
8
CentreLine
10
-1123.31
20
371.95
30
  0.00
11
-1123.31
21
376.35
31
  0.00
0
LINE
8
CentreLine
10
-1117.20
20
369.60
30
  0.00
11
-1123.31
21
371.95
31
  0.00
0
LINE
8
CentreLine
10
-1117.20
20
369.60
30
  0.00
11
-1103.95
21
372.66
31
  0.00
0
LINE
8
CentreLine
10
-1117.20
20
369.60
30
  0.00
11
-1115.66
21
367.32
31
  0.00
0
LINE
8
CentreLine
10
-1115.66
20
367.32
30
  0.00
11
-1115.66
21
360.13
31
  0.00
0
LINE
8
CentreLine
10
-1115.66
20
360.13
30
  0.00
11
-1105.97
21
364.04
31
  0.00
0
LINE
8
CentreLine
10
-1105.97
20
364.04
30
  0.00
11
-1104.78
21
363.25
31
  0.00
0
LINE
8
CentreLine
10
-1104.78
20
363.25
30
  0.00
11
-1104.78
21
335.05
31
  0.00
0
LINE
8
CentreLine
10
-1104.78
20
335.05
30
  0.00
11
-1098.64
21
331.21
31
  0.00
0
LINE
8
CentreLine
10
-1098.64
20
331.21
30
  0.00
11
-1098.64
21
325.91
31
  0.00
0
LINE
8
CentreLine
10
-1098.64
20
325.91
30
  0.00
11
-1093.39
21
325.08
31
  0.00
0
LINE
8
CentreLine
10
-1093.39
20
325.08
30
  0.00
11
-1089.79
21
322.91
31
  0.00
0
LINE
8
CentreLine
10
-1089.79
20
322.91
30
  0.00
11
-1088.13
21
320.06
31
  0.00
0
LINE
8
CentreLine
10
-1088.13
20
320.06
30
  0.00
11
-1082.50
21
320.06
31
  0.00
0
LINE
8
CentreLine
10
-1082.50
20
320.06
30
  0.00
11
-1082.50
21
311.70
31
  0.00
0
LINE
8
CentreLine
10
-1082.50
20
311.70
30
  0.00
11
-1077.27
21
313.00
31
  0.00
0
LINE
8
CentreLine
10
-1077.27
20
313.00
30
  0.00
11
-1069.53
21
309.88
31
  0.00
0
LINE
8
CentreLine
10
-1069.53
20
309.88
30
  0.00
11
-1065.98
21
306.07
31
  0.00
0
LINE
8
CentreLine
10
-1065.98
20
306.07
30
  0.00
11
-1057.46
21
307.58
31
  0.00
0
LINE
8
CentreLine
10
-1057.46
20
307.58
30
  0.00
11
-1046.94
21
311.62
31
  0.00
0
LINE
8
CentreLine
10
-1046.94
20
311.62
30
  0.00
11
-1046.94
21
318.18
31
  0.00
0
LINE
8
CentreLine
10
-1046.94
20
318.18
30
  0.00
11
-1043.87
21
317.47
31
  0.00
0
LINE
8
CentreLine
10
-1043.87
20
317.47
30
  0.00
11
-1037.35
21
320.94
31
  0.00
0
LINE
8
CentreLine
10
-1037.35
20
320.94
30
  0.00
11
-1035.98
21
324.15
31
  0.00
0
LINE
8
CentreLine
10
-1035.98
20
324.15
30
  0.00
11
-1032.09
21
323.81
31
  0.00
0
LINE
8
CentreLine
10
-1046.94
20
311.62
30
  0.00
11
-1043.70
21
311.62
31
  0.00
0
LINE
8
CentreLine
10
-1043.70
20
311.62
30
  0.00
11
-1041.67
21
310.88
31
  0.00
0
LINE
8
CentreLine
10
-1041.67
20
310.88
30
  0.00
11
-1041.67
21
317.43
31
  0.00
0
LINE
8
CentreLine
10
-1041.67
20
317.43
30
  0.00
11
-1040.18
21
317.43
31
  0.00
0
LINE
8
CentreLine
10
-1040.18
20
317.43
30
  0.00
11
-1037.50
21
317.43
31
  0.00
0
LINE
8
CentreLine
10
-1037.50
20
317.43
30
  0.00
11
-1035.26
21
319.31
31
  0.00
0
LINE
8
CentreLine
10
-1035.26
20
319.31
30
  0.00
11
-1035.26
21
323.91
31
  0.00
0
LINE
8
CentreLine
10
-1035.26
20
323.91
30
  0.00
11
-1031.93
21
324.92
31
  0.00
0
LINE
8
CentreLine
10
-1031.93
20
324.92
30
  0.00
11
-1028.00
21
324.86
31
  0.00
0
LINE
8
CentreLine
10
-1028.00
20
324.86
30
  0.00
11
-1026.00
21
330.69
31
  0.00
0
LINE
8
CentreLine
10
-1026.00
20
330.69
30
  0.00
11
-1018.33
21
333.78
31
  0.00
0
LINE
8
CentreLine
10
-1018.33
20
333.78
30
  0.00
11
-1015.67
21
336.96
31
  0.00
0
LINE
8
CentreLine
10
-1015.67
20
336.96
30
  0.00
11
-1013.53
21
338.29
31
  0.00
0
LINE
8
CentreLine
10
-1018.33
20
333.78
30
  0.00
11
-1014.36
21
333.92
31
  0.00
0
LINE
8
CentreLine
10
-1014.36
20
333.92
30
  0.00
11
-1011.37
21
332.26
31
  0.00
0
LINE
8
CentreLine
10
-1011.37
20
332.26
30
  0.00
11
-1007.80
21
334.08
31
  0.00
0
LINE
8
CentreLine
10
-1037.50
20
317.43
30
  0.00
11
-1035.63
21
313.62
31
  0.00
0
LINE
8
CentreLine
10
-1035.63
20
313.62
30
  0.00
11
-1033.49
21
310.88
31
  0.00
0
LINE
8
CentreLine
10
-1033.49
20
310.88
30
  0.00
11
-1033.49
21
294.48
31
  0.00
0
LINE
8
CentreLine
10
-1046.94
20
311.62
30
  0.00
11
-1043.33
21
310.44
31
  0.00
0
LINE
8
CentreLine
10
-1043.33
20
310.44
30
  0.00
11
-1041.02
21
308.36
31
  0.00
0
LINE
8
CentreLine
10
-1041.02
20
308.36
30
  0.00
11
-1038.82
21
305.44
31
  0.00
0
LINE
8
CentreLine
10
-1038.82
20
305.44
30
  0.00
11
-1038.82
21
301.98
31
  0.00
0
LINE
8
CentreLine
10
-1038.82
20
301.98
30
  0.00
11
-1035.18
21
304.54
31
  0.00
0
LINE
8
CentreLine
10
-1035.18
20
304.54
30
  0.00
11
-1032.74
21
301.30
31
  0.00
0
LINE
8
CentreLine
10
-1032.74
20
301.30
30
  0.00
11
-1032.74
21
294.40
31
  0.00
0
LINE
8
CentreLine
10
-1032.74
20
294.40
30
  0.00
11
-1026.24
21
294.06
31
  0.00
0
LINE
8
CentreLine
10
-1026.24
20
294.06
30
  0.00
11
-1024.53
21
294.06
31
  0.00
0
LINE
8
CentreLine
10
-1024.53
20
294.06
30
  0.00
11
-1024.53
21
278.84
31
  0.00
0
LINE
8
CentreLine
10
-1024.53
20
278.84
30
  0.00
11
-1007.72
21
282.42
31
  0.00
0
LINE
8
CentreLine
10
-1007.72
20
282.42
30
  0.00
11
-1004.63
21
282.47
31
  0.00
0
LINE
8
CentreLine
10
-1004.63
20
282.47
30
  0.00
11
-1000.25
21
279.40
31
  0.00
0
LINE
8
CentreLine
10
-1000.25
20
279.40
30
  0.00
11
-1000.25
21
268.95
31
  0.00
0
LINE
8
CentreLine
10
-1000.25
20
268.95
30
  0.00
11
-1000.25
21
261.30
31
  0.00
0
LINE
8
CentreLine
10
-1000.25
20
261.30
30
  0.00
11
-1000.25
21
254.10
31
  0.00
0
LINE
8
CentreLine
10
-1000.25
20
254.10
30
  0.00
11
-1000.25
21
244.60
31
  0.00
0
LINE
8
CentreLine
10
-1000.25
20
244.60
30
  0.00
11
-995.91
21
243.84
31
  0.00
0
LINE
8
CentreLine
10
-995.91
20
243.84
30
  0.00
11
-989.61
21
242.73
31
  0.00
0
LINE
8
CentreLine
10
-989.61
20
242.73
30
  0.00
11
-984.98
21
243.97
31
  0.00
0
LINE
8
CentreLine
10
-984.98
20
243.97
30
  0.00
11
-983.73
21
241.80
31
  0.00
0
LINE
8
CentreLine
10
-983.73
20
241.80
30
  0.00
11
-980.79
21
242.06
31
  0.00
0
LINE
8
CentreLine
10
-980.79
20
242.06
30
  0.00
11
-978.17
21
239.44
31
  0.00
0
LINE
8
CentreLine
10
-978.17
20
239.44
30
  0.00
11
-974.42
21
239.44
31
  0.00
0
LINE
8
CentreLine
10
-974.42
20
239.44
30
  0.00
11
-971.75
21
239.07
31
  0.00
0
LINE
8
CentreLine
10
-971.75
20
239.07
30
  0.00
11
-967.98
21
238.06
31
  0.00
0
LINE
8
CentreLine
10
-967.98
20
238.06
30
  0.00
11
-961.53
21
238.06
31
  0.00
0
LINE
8
CentreLine
10
-961.53
20
238.06
30
  0.00
11
-947.98
21
238.06
31
  0.00
0
LINE
8
CentreLine
10
-947.98
20
238.06
30
  0.00
11
-946.83
21
237.96
31
  0.00
0
LINE
8
CentreLine
10
-946.83
20
237.96
30
  0.00
11
-942.79
21
237.89
31
  0.00
0
LINE
8
CentreLine
10
-942.79
20
237.89
30
  0.00
11
-939.88
21
237.89
31
  0.00
0
LINE
8
CentreLine
10
-939.88
20
237.89
30
  0.00
11
-937.89
21
235.51
31
  0.00
0
LINE
8
CentreLine
10
-937.89
20
235.51
30
  0.00
11
-936.69
21
235.41
31
  0.00
0
LINE
8
CentreLine
10
-936.69
20
235.41
30
  0.00
11
-934.54
21
235.41
31
  0.00
0
LINE
8
CentreLine
10
-934.54
20
235.41
30
  0.00
11
-929.92
21
237.87
31
  0.00
0
LINE
8
CentreLine
10
-929.92
20
237.87
30
  0.00
11
-928.75
21
237.09
31
  0.00
0
LINE
8
CentreLine
10
-928.75
20
237.09
30
  0.00
11
-928.75
21
231.67
31
  0.00
0
LINE
8
CentreLine
10
-928.75
20
231.67
30
  0.00
11
-927.56
21
231.94
31
  0.00
0
LINE
8
CentreLine
10
-927.56
20
231.94
30
  0.00
11
-922.53
21
229.37
31
  0.00
0
LINE
8
CentreLine
10
-922.53
20
229.37
30
  0.00
11
-916.91
21
225.99
31
  0.00
0
LINE
8
CentreLine
10
-916.91
20
225.99
30
  0.00
11
-909.05
21
227.95
31
  0.00
0
LINE
8
CentreLine
10
-909.05
20
227.95
30
  0.00
11
-905.43
21
226.26
31
  0.00
0
LINE
8
CentreLine
10
-905.43
20
226.26
30
  0.00
11
-900.84
21
225.62
31
  0.00
0
LINE
8
CentreLine
10
-900.84
20
225.62
30
  0.00
11
-897.71
21
225.62
31
  0.00
0
LINE
8
CentreLine
10
-900.84
20
225.62
30
  0.00
11
-898.24
21
226.17
31
  0.00
0
LINE
8
CentreLine
10
-898.24
20
226.17
30
  0.00
11
-898.24
21
223.17
31
  0.00
0
LINE
8
CentreLine
10
-898.24
20
223.17
30
  0.00
11
-891.47
21
227.24
31
  0.00
0
LINE
8
CentreLine
10
-891.47
20
227.24
30
  0.00
11
-882.42
21
228.19
31
  0.00
0
LINE
8
CentreLine
10
-882.42
20
228.19
30
  0.00
11
-881.22
21
228.19
31
  0.00
0
LINE
8
CentreLine
10
-881.22
20
228.19
30
  0.00
11
-881.22
21
215.09
31
  0.00
0
LINE
8
CentreLine
10
-881.22
20
215.09
30
  0.00
11
-880.44
21
217.98
31
  0.00
0
LINE
8
CentreLine
10
-880.44
20
217.98
30
  0.00
11
-875.11
21
216.65
31
  0.00
0
LINE
8
CentreLine
10
-875.11
20
216.65
30
  0.00
11
-872.08
21
215.49
31
  0.00
0
LINE
8
CentreLine
10
-872.08
20
215.49
30
  0.00
11
-872.08
21
213.09
31
  0.00
0
LINE
8
CentreLine
10
-872.08
20
213.09
30
  0.00
11
-871.54
21
212.94
31
  0.00
0
LINE
8
CentreLine
10
-871.54
20
212.94
30
  0.00
11
-869.85
21
213.14
31
  0.00
0
LINE
8
CentreLine
10
-869.85
20
213.14
30
  0.00
11
-866.26
21
213.08
31
  0.00
0
LINE
8
CentreLine
10
-866.26
20
213.08
30
  0.00
11
-863.63
21
214.20
31
  0.00
0
LINE
8
CentreLine
10
-863.63
20
214.20
30
  0.00
11
-861.08
21
213.70
31
  0.00
0
LINE
8
CentreLine
10
-861.08
20
213.70
30
  0.00
11
-858.44
21
214.77
31
  0.00
0
LINE
8
CentreLine
10
-858.44
20
214.77
30
  0.00
11
-858.44
21
208.47
31
  0.00
0
LINE
8
CentreLine
10
-858.44
20
208.47
30
  0.00
11
-856.03
21
208.47
31
  0.00
0
LINE
8
CentreLine
10
-856.03
20
208.47
30
  0.00
11
-852.66
21
208.47
31
  0.00
0
LINE
8
CentreLine
10
-852.66
20
208.47
30
  0.00
11
-850.97
21
205.77
31
  0.00
0
LINE
8
CentreLine
10
-850.97
20
205.77
30
  0.00
11
-847.36
21
206.09
31
  0.00
0
LINE
8
CentreLine
10
-847.36
20
206.09
30
  0.00
11
-845.19
21
205.54
31
  0.00
0
LINE
8
CentreLine
10
-845.19
20
205.54
30
  0.00
11
-841.25
21
205.61
31
  0.00
0
LINE
8
CentreLine
10
-841.25
20
205.61
30
  0.00
11
-839.12
21
206.79
31
  0.00
0
LINE
8
CentreLine
10
-839.12
20
206.79
30
  0.00
11
-836.98
21
206.64
31
  0.00
0
LINE
8
CentreLine
10
-836.98
20
206.64
30
  0.00
11
-836.32
21
205.99
31
  0.00
0
LINE
8
CentreLine
10
-836.32
20
205.99
30
  0.00
11
-833.94
21
205.62
31
  0.00
0
LINE
8
CentreLine
10
-833.94
20
205.62
30
  0.00
11
-832.68
21
205.64
31
  0.00
0
LINE
8
CentreLine
10
-832.68
20
205.64
30
  0.00
11
-829.99
21
205.59
31
  0.00
0
LINE
8
CentreLine
10
-829.99
20
205.59
30
  0.00
11
-826.00
21
206.67
31
  0.00
0
LINE
8
CentreLine
10
-826.00
20
206.67
30
  0.00
11
-825.39
21
206.04
31
  0.00
0
LINE
8
CentreLine
10
-825.39
20
206.04
30
  0.00
11
-824.80
21
205.49
31
  0.00
0
LINE
8
CentreLine
10
-824.80
20
205.49
30
  0.00
11
-822.45
21
205.49
31
  0.00
0
LINE
8
CentreLine
10
-822.45
20
205.49
30
  0.00
11
-817.99
21
204.54
31
  0.00
0
LINE
8
CentreLine
10
-817.99
20
204.54
30
  0.00
11
-817.11
21
204.19
31
  0.00
0
LINE
8
CentreLine
10
-817.11
20
204.19
30
  0.00
11
-814.13
21
203.66
31
  0.00
0
LINE
8
CentreLine
10
-814.13
20
203.66
30
  0.00
11
-814.13
21
193.96
31
  0.00
0
LINE
8
CentreLine
10
-814.13
20
193.96
30
  0.00
11
-808.02
21
195.95
31
  0.00
0
LINE
8
CentreLine
10
-808.02
20
195.95
30
  0.00
11
-803.70
21
196.79
31
  0.00
0
LINE
8
CentreLine
10
-803.70
20
196.79
30
  0.00
11
-803.70
21
189.99
31
  0.00
0
LINE
8
CentreLine
10
-803.70
20
189.99
30
  0.00
11
-800.31
21
191.29
31
  0.00
0
LINE
8
CentreLine
10
-800.31
20
191.29
30
  0.00
11
-797.22
21
189.64
31
  0.00
0
LINE
8
CentreLine
10
-797.22
20
189.64
30
  0.00
11
-793.37
21
189.64
31
  0.00
0
LINE
8
CentreLine
10
-793.37
20
189.64
30
  0.00
11
-789.77
21
188.81
31
  0.00
0
LINE
8
CentreLine
10
-789.77
20
188.81
30
  0.00
11
-785.78
21
187.12
31
  0.00
0
LINE
8
CentreLine
10
-785.78
20
187.12
30
  0.00
11
-782.21
21
180.94
31
  0.00
0
LINE
8
CentreLine
10
-782.21
20
180.94
30
  0.00
11
-780.78
21
180.24
31
  0.00
0
LINE
8
CentreLine
10
-780.78
20
180.24
30
  0.00
11
-780.78
21
171.41
31
  0.00
0
LINE
8
CentreLine
10
-780.78
20
171.41
30
  0.00
11
-778.81
21
170.77
31
  0.00
0
LINE
8
CentreLine
10
-778.81
20
170.77
30
  0.00
11
-773.80
21
168.11
31
  0.00
0
LINE
8
CentreLine
10
-773.80
20
168.11
30
  0.00
11
-771.14
21
168.57
31
  0.00
0
LINE
8
CentreLine
10
-771.14
20
168.57
30
  0.00
11
-771.14
21
155.97
31
  0.00
0
LINE
8
CentreLine
10
-771.14
20
155.97
30
  0.00
11
-769.07
21
157.43
31
  0.00
0
LINE
8
CentreLine
10
-769.07
20
157.43
30
  0.00
11
-769.07
21
147.18
31
  0.00
0
LINE
8
CentreLine
10
-769.07
20
147.18
30
  0.00
11
-768.04
21
147.36
31
  0.00
0
LINE
8
CentreLine
10
-768.04
20
147.36
30
  0.00
11
-763.81
21
145.20
31
  0.00
0
LINE
8
CentreLine
10
-763.81
20
145.20
30
  0.00
11
-760.10
21
144.61
31
  0.00
0
LINE
8
CentreLine
10
-760.10
20
144.61
30
  0.00
11
-758.99
21
144.89
31
  0.00
0
LINE
8
CentreLine
10
-758.99
20
144.89
30
  0.00
11
-757.49
21
144.52
31
  0.00
0
LINE
8
CentreLine
10
-757.49
20
144.52
30
  0.00
11
-756.03
21
143.84
31
  0.00
0
LINE
8
CentreLine
10
-756.03
20
143.84
30
  0.00
11
-754.18
21
143.84
31
  0.00
0
LINE
8
CentreLine
10
-754.18
20
143.84
30
  0.00
11
-752.64
21
142.91
31
  0.00
0
LINE
8
CentreLine
10
-752.64
20
142.91
30
  0.00
11
-749.45
21
142.69
31
  0.00
0
LINE
8
CentreLine
10
-749.45
20
142.69
30
  0.00
11
-748.47
21
143.08
31
  0.00
0
LINE
8
CentreLine
10
-748.47
20
143.08
30
  0.00
11
-746.13
21
143.08
31
  0.00
0
LINE
8
CentreLine
10
-746.13
20
143.08
30
  0.00
11
-744.69
21
142.50
31
  0.00
0
LINE
8
CentreLine
10
-744.69
20
142.50
30
  0.00
11
-744.69
21
127.19
31
  0.00
0
LINE
8
CentreLine
10
-744.69
20
127.19
30
  0.00
11
-741.20
21
127.44
31
  0.00
0
LINE
8
CentreLine
10
-741.20
20
127.44
30
  0.00
11
-741.20
21
117.44
31
  0.00
0
LINE
8
CentreLine
10
-741.20
20
117.44
30
  0.00
11
-739.73
21
118.06
31
  0.00
0
LINE
8
CentreLine
10
-739.73
20
118.06
30
  0.00
11
-736.18
21
118.06
31
  0.00
0
LINE
8
CentreLine
10
-736.18
20
118.06
30
  0.00
11
-730.74
21
118.06
31
  0.00
0
LINE
8
CentreLine
10
-730.74
20
118.06
30
  0.00
11
-729.97
21
118.06
31
  0.00
0
LINE
8
CentreLine
10
-729.97
20
118.06
30
  0.00
11
-728.69
21
117.27
31
  0.00
0
LINE
8
CentreLine
10
-728.69
20
117.27
30
  0.00
11
-723.20
21
116.98
31
  0.00
0
LINE
8
CentreLine
10
-723.20
20
116.98
30
  0.00
11
-720.78
21
115.47
31
  0.00
0
LINE
8
CentreLine
10
-720.78
20
115.47
30
  0.00
11
-719.73
21
115.36
31
  0.00
0
LINE
8
CentreLine
10
-719.73
20
115.36
30
  0.00
11
-716.71
21
112.23
31
  0.00
0
LINE
8
CentreLine
10
-716.71
20
112.23
30
  0.00
11
-714.72
21
112.09
31
  0.00
0
LINE
8
CentreLine
10
-808.02
20
195.95
30
  0.00
11
-805.47
21
195.36
31
  0.00
0
LINE
8
CentreLine
10
-805.47
20
195.36
30
  0.00
11
-799.45
21
195.78
31
  0.00
0
LINE
8
CentreLine
10
-799.45
20
195.78
30
  0.00
11
-797.31
21
196.00
31
  0.00
0
LINE
8
CentreLine
10
-797.31
20
196.00
30
  0.00
11
-793.87
21
195.58
31
  0.00
0
LINE
8
CentreLine
10
-793.87
20
195.58
30
  0.00
11
-789.20
21
192.06
31
  0.00
0
LINE
8
CentreLine
10
-789.20
20
192.06
30
  0.00
11
-785.83
21
194.17
31
  0.00
0
LINE
8
CentreLine
10
-785.83
20
194.17
30
  0.00
11
-781.34
21
192.63
31
  0.00
0
LINE
8
CentreLine
10
-781.34
20
192.63
30
  0.00
11
-779.29
21
191.59
31
  0.00
0
LINE
8
CentreLine
10
-779.29
20
191.59
30
  0.00
11
-777.72
21
192.81
31
  0.00
0
LINE
8
CentreLine
10
-777.72
20
192.81
30
  0.00
11
-776.05
21
192.55
31
  0.00
0
LINE
8
CentreLine
10
-776.05
20
192.55
30
  0.00
11
-769.99
21
191.37
31
  0.00
0
LINE
8
CentreLine
10
-769.99
20
191.37
30
  0.00
11
-768.34
21
191.28
31
  0.00
0
LINE
8
CentreLine
10
-768.34
20
191.28
30
  0.00
11
-766.20
21
188.98
31
  0.00
0
LINE
8
CentreLine
10
-766.20
20
188.98
30
  0.00
11
-765.14
21
186.38
31
  0.00
0
LINE
8
CentreLine
10
-765.14
20
186.38
30
  0.00
11
-761.44
21
184.73
31
  0.00
0
LINE
8
CentreLine
10
-761.44
20
184.73
30
  0.00
11
-759.70
21
183.06
31
  0.00
0
LINE
8
CentreLine
10
-759.70
20
183.06
30
  0.00
11
-756.11
21
181.07
31
  0.00
0
LINE
8
CentreLine
10
-756.11
20
181.07
30
  0.00
11
-754.16
21
180.55
31
  0.00
0
LINE
8
CentreLine
10
-754.16
20
180.55
30
  0.00
11
-752.27
21
179.97
31
  0.00
0
LINE
8
CentreLine
10
-752.27
20
179.97
30
  0.00
11
-748.62
21
177.21
31
  0.00
0
LINE
8
CentreLine
10
-748.62
20
177.21
30
  0.00
11
-747.48
21
175.08
31
  0.00
0
LINE
8
CentreLine
10
-747.48
20
175.08
30
  0.00
11
-739.36
21
170.20
31
  0.00
0
LINE
8
CentreLine
10
-739.36
20
170.20
30
  0.00
11
-738.16
21
169.88
31
  0.00
0
LINE
8
CentreLine
10
-738.16
20
169.88
30
  0.00
11
-733.70
21
162.75
31
  0.00
0
LINE
8
CentreLine
10
-733.70
20
162.75
30
  0.00
11
-726.77
21
159.21
31
  0.00
0
LINE
8
CentreLine
10
-726.77
20
159.21
30
  0.00
11
-724.10
21
158.24
31
  0.00
0
LINE
8
CentreLine
10
-724.10
20
158.24
30
  0.00
11
-721.89
21
155.51
31
  0.00
0
LINE
8
CentreLine
10
-721.89
20
155.51
30
  0.00
11
-716.66
21
150.97
31
  0.00
0
LINE
8
CentreLine
10
-716.66
20
150.97
30
  0.00
11
-712.86
21
150.77
31
  0.00
0
LINE
8
CentreLine
10
-712.86
20
150.77
30
  0.00
11
-709.77
21
144.95
31
  0.00
0
LINE
8
CentreLine
10
-709.77
20
144.95
30
  0.00
11
-707.80
21
147.21
31
  0.00
0
LINE
8
CentreLine
10
-707.80
20
147.21
30
  0.00
11
-705.17
21
146.15
31
  0.00
0
LINE
8
CentreLine
10
-705.17
20
146.15
30
  0.00
11
-704.34
21
142.20
31
  0.00
0
LINE
8
CentreLine
10
-704.34
20
142.20
30
  0.00
11
-703.29
21
138.01
31
  0.00
0
LINE
8
CentreLine
10
-703.29
20
138.01
30
  0.00
11
-701.29
21
137.08
31
  0.00
0
LINE
8
CentreLine
10
-701.29
20
137.08
30
  0.00
11
-698.99
21
137.24
31
  0.00
0
LINE
8
CentreLine
10
-698.99
20
137.24
30
  0.00
11
-698.99
21
118.14
31
  0.00
0
LINE
8
CentreLine
10
-698.99
20
118.14
30
  0.00
11
-696.13
21
119.07
31
  0.00
0
LINE
8
CentreLine
10
-789.20
20
192.06
30
  0.00
11
-787.36
21
192.13
31
  0.00
0
LINE
8
CentreLine
10
-787.36
20
192.13
30
  0.00
11
-782.01
21
190.79
31
  0.00
0
LINE
8
CentreLine
10
-782.01
20
190.79
30
  0.00
11
-779.41
21
190.05
31
  0.00
0
LINE
8
CentreLine
10
-841.25
20
205.61
30
  0.00
11
-838.45
21
208.51
31
  0.00
0
LINE
8
CentreLine
10
-1007.72
20
282.42
30
  0.00
11
-1005.48
21
281.94
31
  0.00
0
LINE
8
CentreLine
10
-1005.48
20
281.94
30
  0.00
11
-1003.70
21
281.66
31
  0.00
0
LINE
8
CentreLine
10
-1003.70
20
281.66
30
  0.00
11
-999.33
21
276.98
31
  0.00
0
LINE
8
CentreLine
10
-999.33
20
276.98
30
  0.00
11
-999.33
21
235.78
31
  0.00
0
LINE
8
CentreLine
10
-999.33
20
235.78
30
  0.00
11
-999.33
21
218.28
31
  0.00
0
LINE
8
CentreLine
10
-999.33
20
218.28
30
  0.00
11
-981.68
21
218.58
31
  0.00
0
LINE
8
CentreLine
10
-981.68
20
218.58
30
  0.00
11
-977.66
21
214.13
31
  0.00
0
LINE
8
CentreLine
10
-977.66
20
214.13
30
  0.00
11
-977.66
21
209.33
31
  0.00
0
LINE
8
CentreLine
10
-977.66
20
209.33
30
  0.00
11
-973.19
21
207.87
31
  0.00
0
LINE
8
CentreLine
10
-973.19
20
207.87
30
  0.00
11
-967.78
21
202.83
31
  0.00
0
LINE
8
CentreLine
10
-967.78
20
202.83
30
  0.00
11
-961.18
21
202.71
31
  0.00
0
LINE
8
CentreLine
10
-961.18
20
202.71
30
  0.00
11
-961.18
21
185.51
31
  0.00
0
LINE
8
CentreLine
10
-961.18
20
202.71
30
  0.00
11
-959.85
21
193.31
31
  0.00
0
LINE
8
CentreLine
10
-959.85
20
193.31
30
  0.00
11
-956.15
21
191.97
31
  0.00
0
LINE
8
CentreLine
10
-956.15
20
191.97
30
  0.00
11
-953.73
21
195.07
31
  0.00
0
LINE
8
CentreLine
10
-953.73
20
195.07
30
  0.00
11
-936.56
21
198.41
31
  0.00
0
LINE
8
CentreLine
10
-936.56
20
198.41
30
  0.00
11
-923.54
21
198.63
31
  0.00
0
LINE
8
CentreLine
10
-923.54
20
198.63
30
  0.00
11
-921.34
21
198.44
31
  0.00
0
LINE
8
CentreLine
10
-921.34
20
198.44
30
  0.00
11
-918.88
21
197.74
31
  0.00
0
LINE
8
CentreLine
10
-918.88
20
197.74
30
  0.00
11
-918.88
21
186.43
31
  0.00
0
LINE
8
CentreLine
10
-918.88
20
186.43
30
  0.00
11
-915.13
21
179.39
31
  0.00
0
LINE
8
CentreLine
10
-915.13
20
179.39
30
  0.00
11
-914.31
21
155.82
31
  0.00
0
LINE
8
CentreLine
10
-914.31
20
155.82
30
  0.00
11
-910.28
21
156.10
31
  0.00
0
LINE
8
CentreLine
10
-910.28
20
156.10
30
  0.00
11
-906.48
21
153.91
31
  0.00
0
LINE
8
CentreLine
10
-906.48
20
153.91
30
  0.00
11
-903.76
21
154.01
31
  0.00
0
LINE
8
CentreLine
10
-903.76
20
154.01
30
  0.00
11
-901.50
21
128.21
31
  0.00
0
LINE
8
CentreLine
10
-901.50
20
128.21
30
  0.00
11
-891.00
21
126.73
31
  0.00
0
LINE
8
CentreLine
10
-891.00
20
126.73
30
  0.00
11
-891.00
21
106.84
31
  0.00
0
LINE
8
CentreLine
10
-891.00
20
106.84
30
  0.00
11
-887.28
21
108.27
31
  0.00
0
LINE
8
CentreLine
10
-887.28
20
108.27
30
  0.00
11
-884.64
21
107.71
31
  0.00
0
LINE
8
CentreLine
10
-884.64
20
107.71
30
  0.00
11
-884.64
21
 93.90
31
  0.00
0
LINE
8
CentreLine
10
-884.64
20
 93.90
30
  0.00
11
-884.64
21
 73.32
31
  0.00
0
LINE
8
CentreLine
10
-884.64
20
 73.32
30
  0.00
11
-884.64
21
 55.27
31
  0.00
0
LINE
8
CentreLine
10
-884.64
20
 55.27
30
  0.00
11
-884.64
21
 40.94
31
  0.00
0
LINE
8
CentreLine
10
-884.64
20
 40.94
30
  0.00
11
-880.14
21
 40.94
31
  0.00
0
LINE
8
CentreLine
10
-880.14
20
 40.94
30
  0.00
11
-867.90
21
 40.51
31
  0.00
0
LINE
8
CentreLine
10
-867.90
20
 40.51
30
  0.00
11
-867.27
21
 40.19
31
  0.00
0
LINE
8
CentreLine
10
-867.27
20
 40.19
30
  0.00
11
-867.27
21
 24.71
31
  0.00
0
LINE
8
CentreLine
10
-867.27
20
 24.71
30
  0.00
11
-860.55
21
 22.13
31
  0.00
0
LINE
8
CentreLine
10
-860.55
20
 22.13
30
  0.00
11
-855.75
21
 20.00
31
  0.00
0
LINE
8
CentreLine
10
-855.75
20
 20.00
30
  0.00
11
-855.75
21
  7.78
31
  0.00
0
LINE
8
CentreLine
10
-855.75
20
  7.78
30
  0.00
11
-852.22
21
  9.43
31
  0.00
0
LINE
8
CentreLine
10
-852.22
20
  9.43
30
  0.00
11
-851.13
21
  7.21
31
  0.00
0
LINE
8
CentreLine
10
-851.13
20
  7.21
30
  0.00
11
-851.13
21
-20.72
31
  0.00
0
LINE
8
CentreLine
10
-851.13
20
-20.72
30
  0.00
11
-846.79
21
-30.97
31
  0.00
0
LINE
8
CentreLine
10
-846.79
20
-30.97
30
  0.00
11
-844.01
21
-32.44
31
  0.00
0
LINE
8
CentreLine
10
-844.01
20
-32.44
30
  0.00
11
-838.99
21
-39.35
31
  0.00
0
LINE
8
CentreLine
10
-838.99
20
-39.35
30
  0.00
11
-835.40
21
-43.95
31
  0.00
0
LINE
8
CentreLine
10
-838.99
20
-39.35
30
  0.00
11
-835.00
21
-42.04
31
  0.00
0
LINE
8
CentreLine
10
-835.00
20
-42.04
30
  0.00
11
-831.87
21
-43.31
31
  0.00
0
LINE
8
CentreLine
10
-831.87
20
-43.31
30
  0.00
11
-823.42
21
-45.65
31
  0.00
0
LINE
8
CentreLine
10
-823.42
20
-45.65
30
  0.00
11
-821.83
21
-45.79
31
  0.00
0
LINE
8
CentreLine
10
-821.83
20
-45.79
30
  0.00
11
-817.74
21
-45.72
31
  0.00
0
LINE
8
CentreLine
10
-817.74
20
-45.72
30
  0.00
11
-815.58
21
-46.42
31
  0.00
0
LINE
8
CentreLine
10
-815.58
20
-46.42
30
  0.00
11
-811.93
21
-47.75
31
  0.00
0
LINE
8
CentreLine
10
-851.13
20
-20.72
30
  0.00
11
-851.13
21
-30.96
31
  0.00
0
LINE
8
CentreLine
10
-851.13
20
-30.96
30
  0.00
11
-851.13
21
-27.23
31
  0.00
0
LINE
8
CentreLine
10
-851.13
20
-27.23
30
  0.00
11
-840.28
21
-27.80
31
  0.00
0
LINE
8
CentreLine
10
-840.28
20
-27.80
30
  0.00
11
-830.86
21
-23.80
31
  0.00
0
LINE
8
CentreLine
10
-830.86
20
-23.80
30
  0.00
11
-828.13
21
-24.74
31
  0.00
0
LINE
8
CentreLine
10
-828.13
20
-24.74
30
  0.00
11
-816.74
21
-38.31
31
  0.00
0
LINE
8
CentreLine
10
-816.74
20
-38.31
30
  0.00
11
-812.47
21
-35.21
31
  0.00
0
LINE
8
CentreLine
10
-812.47
20
-35.21
30
  0.00
11
-802.90
21
-39.88
31
  0.00
0
LINE
8
CentreLine
10
-802.90
20
-39.88
30
  0.00
11
-799.88
21
-40.47
31
  0.00
0
LINE
8
CentreLine
10
-799.88
20
-40.47
30
  0.00
11
-797.52
21
-40.34
31
  0.00
0
LINE
8
CentreLine
10
-797.52
20
-40.34
30
  0.00
11
-797.52
21
-39.57
31
  0.00
0
LINE
8
CentreLine
10
-797.52
20
-39.57
30
  0.00
11
-794.64
21
-41.66
31
  0.00
0
LINE
8
CentreLine
10
-794.64
20
-41.66
30
  0.00
11
-792.46
21
-42.98
31
  0.00
0
LINE
8
CentreLine
10
-792.46
20
-42.98
30
  0.00
11
-790.02
21
-44.56
31
  0.00
0
LINE
8
CentreLine
10
-790.02
20
-44.56
30
  0.00
11
-784.44
21
-52.53
31
  0.00
0
LINE
8
CentreLine
10
-784.44
20
-52.53
30
  0.00
11
-778.36
21
-53.83
31
  0.00
0
LINE
8
CentreLine
10
-778.36
20
-53.83
30
  0.00
11
-775.90
21
-53.70
31
  0.00
0
LINE
8
CentreLine
10
-775.90
20
-53.70
30
  0.00
11
-775.36
21
-55.59
31
  0.00
0
LINE
8
CentreLine
10
-775.36
20
-55.59
30
  0.00
11
-771.81
21
-61.51
31
  0.00
0
LINE
8
CentreLine
10
-771.81
20
-61.51
30
  0.00
11
-767.60
21
-59.63
31
  0.00
0
LINE
8
CentreLine
10
-767.60
20
-59.63
30
  0.00
11
-765.83
21
-61.99
31
  0.00
0
LINE
8
CentreLine
10
-765.83
20
-61.99
30
  0.00
11
-765.83
21
-67.62
31
  0.00
0
LINE
8
CentreLine
10
-765.83
20
-67.62
30
  0.00
11
-760.52
21
-67.99
31
  0.00
0
LINE
8
CentreLine
10
-760.52
20
-67.99
30
  0.00
11
-755.91
21
-69.85
31
  0.00
0
LINE
8
CentreLine
10
-755.91
20
-69.85
30
  0.00
11
-752.03
21
-72.18
31
  0.00
0
LINE
8
CentreLine
10
-752.03
20
-72.18
30
  0.00
11
-741.91
21
-87.19
31
  0.00
0
LINE
8
CentreLine
10
-741.91
20
-87.19
30
  0.00
11
-737.62
21
-85.79
31
  0.00
0
LINE
8
CentreLine
10
-737.62
20
-85.79
30
  0.00
11
-735.61
21
-89.43
31
  0.00
0
LINE
8
CentreLine
10
-735.61
20
-89.43
30
  0.00
11
-730.08
21
-92.25
31
  0.00
0
LINE
8
CentreLine
10
-730.08
20
-92.25
30
  0.00
11
-727.56
21
-91.57
31
  0.00
0
LINE
8
CentreLine
10
-727.56
20
-91.57
30
  0.00
11
-721.24
21
-92.24
31
  0.00
0
LINE
8
CentreLine
10
-721.24
20
-92.24
30
  0.00
11
-718.23
21
-92.45
31
  0.00
0
LINE
8
CentreLine
10
-718.23
20
-92.45
30
  0.00
11
-715.84
21
-92.24
31
  0.00
0
LINE
8
CentreLine
10
-715.84
20
-92.24
30
  0.00
11
-715.84
21
-122.24
31
  0.00
0
LINE
8
CentreLine
10
-715.84
20
-122.24
30
  0.00
11
-713.37
21
-121.19
31
  0.00
0
LINE
8
CentreLine
10
-713.37
20
-121.19
30
  0.00
11
-711.47
21
-126.41
31
  0.00
0
LINE
8
CentreLine
10
-711.47
20
-126.41
30
  0.00
11
-711.47
21
-144.91
31
  0.00
0
LINE
8
CentreLine
10
-711.47
20
-144.91
30
  0.00
11
-705.31
21
-143.60
31
  0.00
0
LINE
8
CentreLine
10
-705.31
20
-143.60
30
  0.00
11
-698.49
21
-141.38
31
  0.00
0
LINE
8
CentreLine
10
-698.49
20
-141.38
30
  0.00
11
-679.08
21
-140.36
31
  0.00
0
LINE
8
CentreLine
10
-679.08
20
-140.36
30
  0.00
11
-660.86
21
-141.32
31
  0.00
0
LINE
8
CentreLine
10
-660.86
20
-141.32
30
  0.00
11
-653.23
21
-142.80
31
  0.00
0
LINE
8
CentreLine
10
-653.23
20
-142.80
30
  0.00
11
-640.46
21
-140.78
31
  0.00
0
LINE
8
CentreLine
10
-640.46
20
-140.78
30
  0.00
11
-628.52
21
-138.56
31
  0.00
0
LINE
8
CentreLine
10
-628.52
20
-138.56
30
  0.00
11
-620.75
21
-140.79
31
  0.00
0
LINE
8
CentreLine
10
-620.75
20
-140.79
30
  0.00
11
-609.02
21
-143.07
31
  0.00
0
LINE
8
CentreLine
10
-609.02
20
-143.07
30
  0.00
11
-601.89
21
-144.39
31
  0.00
0
LINE
8
CentreLine
10
-601.89
20
-144.39
30
  0.00
11
-577.49
21
-145.88
31
  0.00
0
LINE
8
CentreLine
10
-577.49
20
-145.88
30
  0.00
11
-568.39
21
-146.04
31
  0.00
0
LINE
8
CentreLine
10
-568.39
20
-146.04
30
  0.00
11
-557.44
21
-146.43
31
  0.00
0
LINE
8
CentreLine
10
-557.44
20
-146.43
30
  0.00
11
-543.86
21
-152.47
31
  0.00
0
LINE
8
CentreLine
10
-543.86
20
-152.47
30
  0.00
11
-530.43
21
-158.45
31
  0.00
0
LINE
8
CentreLine
10
-530.43
20
-158.45
30
  0.00
11
-528.14
21
-160.37
31
  0.00
0
LINE
8
CentreLine
10
-528.14
20
-160.37
30
  0.00
11
-516.01
21
-159.74
31
  0.00
0
LINE
8
CentreLine
10
-516.01
20
-159.74
30
  0.00
11
-502.25
21
-160.22
31
  0.00
0
LINE
8
CentreLine
10
-502.25
20
-160.22
30
  0.00
11
-486.68
21
-164.39
31
  0.00
0
LINE
8
CentreLine
10
-486.68
20
-164.39
30
  0.00
11
-476.60
21
-167.48
31
  0.00
0
LINE
8
CentreLine
10
-476.60
20
-167.48
30
  0.00
11
-471.96
21
-172.36
31
  0.00
0
LINE
8
CentreLine
10
-471.96
20
-172.36
30
  0.00
11
-461.44
21
-170.12
31
  0.00
0
LINE
8
CentreLine
10
-461.44
20
-170.12
30
  0.00
11
-458.72
21
-170.36
31
  0.00
0
LINE
8
CentreLine
10
-458.72
20
-170.36
30
  0.00
11
-454.85
21
-172.42
31
  0.00
0
LINE
8
CentreLine
10
-454.85
20
-172.42
30
  0.00
11
-447.97
21
-171.69
31
  0.00
0
LINE
8
CentreLine
10
-447.97
20
-171.69
30
  0.00
11
-439.42
21
-169.08
31
  0.00
0
LINE
8
CentreLine
10
-439.42
20
-169.08
30
  0.00
11
-430.63
21
-171.77
31
  0.00
0
LINE
8
CentreLine
10
-430.63
20
-171.77
30
  0.00
11
-423.59
21
-172.39
31
  0.00
0
LINE
8
CentreLine
10
-423.59
20
-172.39
30
  0.00
11
-420.06
21
-173.81
31
  0.00
0
LINE
8
CentreLine
10
-420.06
20
-173.81
30
  0.00
11
-411.01
21
-173.66
31
  0.00
0
LINE
8
CentreLine
10
-411.01
20
-173.66
30
  0.00
11
-409.46
21
-173.66
31
  0.00
0
LINE
8
CentreLine
10
-409.46
20
-173.66
30
  0.00
11
-404.29
21
-174.38
31
  0.00
0
LINE
8
CentreLine
10
-404.29
20
-174.38
30
  0.00
11
-401.21
21
-176.55
31
  0.00
0
LINE
8
CentreLine
10
-401.21
20
-176.55
30
  0.00
11
-398.10
21
-185.04
31
  0.00
0
LINE
8
CentreLine
10
-398.10
20
-185.04
30
  0.00
11
-395.59
21
-189.07
31
  0.00
0
LINE
8
CentreLine
10
-395.59
20
-189.07
30
  0.00
11
-393.48
21
-194.31
31
  0.00
0
LINE
8
CentreLine
10
-393.48
20
-194.31
30
  0.00
11
-393.48
21
-216.41
31
  0.00
0
LINE
8
CentreLine
10
-393.48
20
-216.41
30
  0.00
11
-393.48
21
-227.19
31
  0.00
0
LINE
8
CentreLine
10
-393.48
20
-227.19
30
  0.00
11
-393.48
21
-247.16
31
  0.00
0
LINE
8
CentreLine
10
-393.48
20
-247.16
30
  0.00
11
-390.01
21
-245.61
31
  0.00
0
LINE
8
CentreLine
10
-390.01
20
-245.61
30
  0.00
11
-376.93
21
-244.93
31
  0.00
0
LINE
8
CentreLine
10
-376.93
20
-244.93
30
  0.00
11
-374.69
21
-245.00
31
  0.00
0
LINE
8
CentreLine
10
-374.69
20
-245.00
30
  0.00
11
-369.90
21
-245.51
31
  0.00
0
LINE
8
CentreLine
10
-369.90
20
-245.51
30
  0.00
11
-364.38
21
-245.51
31
  0.00
0
LINE
8
CentreLine
10
-364.38
20
-245.51
30
  0.00
11
-359.92
21
-245.35
31
  0.00
0
LINE
8
CentreLine
10
-359.92
20
-245.35
30
  0.00
11
-358.20
21
-245.38
31
  0.00
0
LINE
8
CentreLine
10
-358.20
20
-245.38
30
  0.00
11
-354.51
21
-244.53
31
  0.00
0
LINE
8
CentreLine
10
-354.51
20
-244.53
30
  0.00
11
-351.31
21
-244.87
31
  0.00
0
LINE
8
CentreLine
10
-351.31
20
-244.87
30
  0.00
11
-344.23
21
-244.50
31
  0.00
0
LINE
8
CentreLine
10
-344.23
20
-244.50
30
  0.00
11
-338.76
21
-244.59
31
  0.00
0
LINE
8
CentreLine
10
-338.76
20
-244.59
30
  0.00
11
-335.98
21
-243.35
31
  0.00
0
LINE
8
CentreLine
10
-335.98
20
-243.35
30
  0.00
11
-329.81
21
-243.78
31
  0.00
0
LINE
8
CentreLine
10
-329.81
20
-243.78
30
  0.00
11
-321.74
21
-244.92
31
  0.00
0
LINE
8
CentreLine
10
-321.74
20
-244.92
30
  0.00
11
-315.61
21
-245.02
31
  0.00
0
LINE
8
CentreLine
10
-315.61
20
-245.02
30
  0.00
11
-291.96
21
-243.78
31
  0.00
0
LINE
8
CentreLine
10
-291.96
20
-243.78
30
  0.00
11
-285.17
21
-245.47
31
  0.00
0
LINE
8
CentreLine
10
-285.17
20
-245.47
30
  0.00
11
-281.42
21
-245.54
31
  0.00
0
LINE
8
CentreLine
10
-281.42
20
-245.54
30
  0.00
11
-272.77
21
-246.30
31
  0.00
0
LINE
8
CentreLine
10
-272.77
20
-246.30
30
  0.00
11
-269.86
21
-245.57
31
  0.00
0
LINE
8
CentreLine
10
-269.86
20
-245.57
30
  0.00
11
-259.86
21
-245.40
31
  0.00
0
LINE
8
CentreLine
10
-259.86
20
-245.40
30
  0.00
11
-253.63
21
-245.72
31
  0.00
0
LINE
8
CentreLine
10
-253.63
20
-245.72
30
  0.00
11
-244.22
21
-245.56
31
  0.00
0
LINE
8
CentreLine
10
-244.22
20
-245.56
30
  0.00
11
-241.75
21
-246.56
31
  0.00
0
LINE
8
CentreLine
10
-241.75
20
-246.56
30
  0.00
11
-239.70
21
-246.66
31
  0.00
0
LINE
8
CentreLine
10
-239.70
20
-246.66
30
  0.00
11
-238.39
21
-246.62
31
  0.00
0
LINE
8
CentreLine
10
-238.39
20
-246.62
30
  0.00
11
-228.13
21
-244.44
31
  0.00
0
LINE
8
CentreLine
10
-228.13
20
-244.44
30
  0.00
11
-221.22
21
-245.91
31
  0.00
0
LINE
8
CentreLine
10
-221.22
20
-245.91
30
  0.00
11
-217.94
21
-252.35
31
  0.00
0
LINE
8
CentreLine
10
-217.94
20
-252.35
30
  0.00
11
-214.73
21
-251.96
31
  0.00
0
LINE
8
CentreLine
10
-214.73
20
-251.96
30
  0.00
11
-205.45
21
-252.61
31
  0.00
0
LINE
8
CentreLine
10
-205.45
20
-252.61
30
  0.00
11
-198.64
21
-251.28
31
  0.00
0
LINE
8
CentreLine
10
-198.64
20
-251.28
30
  0.00
11
-191.01
21
-253.33
31
  0.00
0
LINE
8
CentreLine
10
-191.01
20
-253.33
30
  0.00
11
-185.66
21
-250.60
31
  0.00
0
LINE
8
CentreLine
10
-185.66
20
-250.60
30
  0.00
11
-179.92
21
-253.92
31
  0.00
0
LINE
8
CentreLine
10
-179.92
20
-253.92
30
  0.00
11
-178.74
21
-254.10
31
  0.00
0
LINE
8
CentreLine
10
-178.74
20
-254.10
30
  0.00
11
-178.74
21
-259.76
31
  0.00
0
LINE
8
CentreLine
10
-178.74
20
-259.76
30
  0.00
11
-173.68
21
-260.21
31
  0.00
0
LINE
8
CentreLine
10
-173.68
20
-260.21
30
  0.00
11
-171.79
21
-260.44
31
  0.00
0
LINE
8
CentreLine
10
-171.79
20
-260.44
30
  0.00
11
-166.55
21
-260.35
31
  0.00
0
LINE
8
CentreLine
10
-166.55
20
-260.35
30
  0.00
11
-163.90
21
-259.59
31
  0.00
0
LINE
8
CentreLine
10
-163.90
20
-259.59
30
  0.00
11
-162.77
21
-259.55
31
  0.00
0
LINE
8
CentreLine
10
-162.77
20
-259.55
30
  0.00
11
-158.04
21
-259.96
31
  0.00
0
LINE
8
CentreLine
10
-158.04
20
-259.96
30
  0.00
11
-153.04
21
-260.14
31
  0.00
0
LINE
8
CentreLine
10
-153.04
20
-260.14
30
  0.00
11
-147.61
21
-258.48
31
  0.00
0
LINE
8
CentreLine
10
-147.61
20
-258.48
30
  0.00
11
-139.74
21
-259.87
31
  0.00
0
LINE
8
CentreLine
10
-139.74
20
-259.87
30
  0.00
11
-136.74
21
-260.34
31
  0.00
0
LINE
8
CentreLine
10
-136.74
20
-260.34
30
  0.00
11
-131.43
21
-259.69
31
  0.00
0
LINE
8
CentreLine
10
-131.43
20
-259.69
30
  0.00
11
-125.77
21
-259.09
31
  0.00
0
LINE
8
CentreLine
10
-125.77
20
-259.09
30
  0.00
11
-123.29
21
-256.62
31
  0.00
0
LINE
8
CentreLine
10
-123.29
20
-256.62
30
  0.00
11
-118.84
21
-255.83
31
  0.00
0
LINE
8
CentreLine
10
-118.84
20
-255.83
30
  0.00
11
-106.60
21
-258.88
31
  0.00
0
LINE
8
CentreLine
10
-106.60
20
-258.88
30
  0.00
11
-88.87
21
-264.65
31
  0.00
0
LINE
8
CentreLine
10
-88.87
20
-264.65
30
  0.00
11
-79.93
21
-271.14
31
  0.00
0
LINE
8
CentreLine
10
-79.93
20
-271.14
30
  0.00
11
-69.02
21
-273.86
31
  0.00
0
LINE
8
CentreLine
10
-69.02
20
-273.86
30
  0.00
11
-54.91
21
-279.00
31
  0.00
0
LINE
8
CentreLine
10
-54.91
20
-279.00
30
  0.00
11
-47.71
21
-279.00
31
  0.00
0
LINE
8
CentreLine
10
-47.71
20
-279.00
30
  0.00
11
-43.08
21
-280.50
31
  0.00
0
LINE
8
CentreLine
10
-43.08
20
-280.50
30
  0.00
11
-38.39
21
-282.03
31
  0.00
0
LINE
8
CentreLine
10
-38.39
20
-282.03
30
  0.00
11
-36.43
21
-282.44
31
  0.00
0
LINE
8
CentreLine
10
-36.43
20
-282.44
30
  0.00
11
-31.32
21
-287.73
31
  0.00
0
LINE
8
CentreLine
10
-31.32
20
-287.73
30
  0.00
11
-11.12
21
-291.29
31
  0.00
0
LINE
8
CentreLine
10
-11.12
20
-291.29
30
  0.00
11
 -2.03
21
-291.45
31
  0.00
0
LINE
8
CentreLine
10
 -2.03
20
-291.45
30
  0.00
11
  6.23
21
-297.23
31
 -0.00
0
LINE
8
CentreLine
10
  6.23
20
-297.23
30
 -0.00
11
 25.38
21
-304.20
31
 -0.00
0
LINE
8
CentreLine
10
 25.38
20
-304.20
30
 -0.00
11
 29.73
21
-305.37
31
 -0.00
0
LINE
8
CentreLine
10
 29.73
20
-305.37
30
 -0.00
11
 35.71
21
-305.68
31
 -0.00
0
LINE
8
CentreLine
10
 35.71
20
-305.68
30
 -0.00
11
 43.51
21
-304.31
31
 -0.00
0
LINE
8
CentreLine
10
 43.51
20
-304.31
30
 -0.00
11
 51.32
21
-305.82
31
 -0.00
0
LINE
8
CentreLine
10
 51.32
20
-305.82
30
 -0.00
11
 60.14
21
-308.69
31
 -0.00
0
LINE
8
CentreLine
10
 60.14
20
-308.69
30
 -0.00
11
 65.82
21
-310.65
31
 -0.00
0
LINE
8
CentreLine
10
 65.82
20
-310.65
30
 -0.00
11
 73.38
21
-312.53
31
 -0.00
0
LINE
8
CentreLine
10
 73.38
20
-312.53
30
 -0.00
11
 76.28
21
-312.48
31
 -0.00
0
LINE
8
CentreLine
10
 76.28
20
-312.48
30
 -0.00
11
 82.39
21
-318.17
31
 -0.00
0
LINE
8
CentreLine
10
 82.39
20
-318.17
30
 -0.00
11
101.94
21
-321.27
31
 -0.00
0
LINE
8
CentreLine
10
101.94
20
-321.27
30
 -0.00
11
109.40
21
-322.72
31
 -0.00
0
LINE
8
CentreLine
10
109.40
20
-322.72
30
 -0.00
11
115.01
21
-328.73
31
 -0.00
0
LINE
8
CentreLine
10
115.01
20
-328.73
30
 -0.00
11
128.90
21
-335.80
31
 -0.00
0
LINE
8
CentreLine
10
128.90
20
-335.80
30
 -0.00
11
135.17
21
-335.80
31
 -0.00
0
LINE
8
CentreLine
10
135.17
20
-335.80
30
 -0.00
11
137.73
21
-334.38
31
 -0.00
0
LINE
8
CentreLine
10
137.73
20
-334.38
30
 -0.00
11
143.77
21
-334.38
31
 -0.00
0
LINE
8
CentreLine
10
143.77
20
-334.38
30
 -0.00
11
155.53
21
-331.45
31
 -0.00
0
LINE
8
CentreLine
10
155.53
20
-331.45
30
 -0.00
11
162.48
21
-330.72
31
 -0.00
0
LINE
8
CentreLine
10
162.48
20
-330.72
30
 -0.00
11
168.34
21
-330.31
31
 -0.00
0
LINE
8
CentreLine
10
168.34
20
-330.31
30
 -0.00
11
171.42
21
-332.71
31
 -0.00
0
LINE
8
CentreLine
10
171.42
20
-332.71
30
 -0.00
11
173.85
21
-334.24
31
 -0.00
0
LINE
8
CentreLine
10
173.85
20
-334.24
30
 -0.00
11
181.89
21
-334.24
31
 -0.00
0
LINE
8
CentreLine
10
181.89
20
-334.24
30
 -0.00
11
183.96
21
-335.44
31
 -0.00
0
LINE
8
CentreLine
10
183.96
20
-335.44
30
 -0.00
11
187.80
21
-332.85
31
 -0.00
0
LINE
8
CentreLine
10
187.80
20
-332.85
30
 -0.00
11
207.65
21
-331.81
31
 -0.00
0
LINE
8
CentreLine
10
207.65
20
-331.81
30
 -0.00
11
212.06
21
-330.79
31
 -0.00
0
LINE
8
CentreLine
10
212.06
20
-330.79
30
 -0.00
11
214.77
21
-334.66
31
 -0.00
0
LINE
8
CentreLine
10
214.77
20
-334.66
30
 -0.00
11
220.20
21
-336.53
31
 -0.00
0
LINE
8
CentreLine
10
168.34
20
-330.31
30
 -0.00
11
181.56
21
-326.77
31
 -0.00
0
LINE
8
CentreLine
10
181.56
20
-326.77
30
 -0.00
11
191.16
21
-324.19
31
 -0.00
0
LINE
8
CentreLine
10
191.16
20
-324.19
30
 -0.00
11
197.99
21
-321.30
31
 -0.00
0
LINE
8
CentreLine
10
197.99
20
-321.30
30
 -0.00
11
205.51
21
-317.95
31
 -0.00
0
LINE
8
CentreLine
10
205.51
20
-317.95
30
 -0.00
11
208.39
21
-318.89
31
 -0.00
0
LINE
8
CentreLine
10
208.39
20
-318.89
30
 -0.00
11
212.88
21
-317.93
31
 -0.00
0
LINE
8
CentreLine
10
212.88
20
-317.93
30
 -0.00
11
236.35
21
-303.82
31
 -0.00
0
LINE
8
CentreLine
10
236.35
20
-303.82
30
 -0.00
11
241.97
21
-301.44
31
 -0.00
0
LINE
8
CentreLine
10
241.97
20
-301.44
30
 -0.00
11
250.78
21
-307.84
31
 -0.00
0
LINE
8
CentreLine
10
250.78
20
-307.84
30
 -0.00
11
252.58
21
-306.71
31
 -0.00
0
LINE
8
CentreLine
10
252.58
20
-306.71
30
 -0.00
11
261.04
21
-310.83
31
 -0.00
0
LINE
8
CentreLine
10
261.04
20
-310.83
30
 -0.00
11
269.74
21
-320.84
31
 -0.00
0
LINE
8
CentreLine
10
269.74
20
-320.84
30
 -0.00
11
276.18
21
-322.21
31
 -0.00
0
LINE
8
CentreLine
10
276.18
20
-322.21
30
 -0.00
11
299.64
21
-330.75
31
 -0.00
0
LINE
8
CentreLine
10
299.64
20
-330.75
30
 -0.00
11
309.43
21
-337.35
31
 -0.00
0
LINE
8
CentreLine
10
309.43
20
-337.35
30
 -0.00
11
317.25
21
-340.99
31
 -0.00
0
LINE
8
CentreLine
10
317.25
20
-340.99
30
 -0.00
11
321.06
21
-340.99
31
 -0.00
0
LINE
8
CentreLine
10
321.06
20
-340.99
30
 -0.00
11
327.84
21
-339.18
31
 -0.00
0
LINE
8
CentreLine
10
327.84
20
-339.18
30
 -0.00
11
348.01
21
-332.62
31
 -0.00
0
LINE
8
CentreLine
10
348.01
20
-332.62
30
 -0.00
11
353.93
21
-333.56
31
 -0.00
0
LINE
8
CentreLine
10
353.93
20
-333.56
30
 -0.00
11
361.02
21
-332.05
31
 -0.00
0
LINE
8
CentreLine
10
361.02
20
-332.05
30
 -0.00
11
367.54
21
-334.04
31
 -0.00
0
LINE
8
CentreLine
10
367.54
20
-334.04
30
 -0.00
11
369.18
21
-334.84
31
 -0.00
0
LINE
8
CentreLine
10
369.18
20
-334.84
30
 -0.00
11
377.56
21
-345.57
31
 -0.00
0
LINE
8
CentreLine
10
377.56
20
-345.57
30
 -0.00
11
381.01
21
-344.31
31
 -0.00
0
LINE
8
CentreLine
10
381.01
20
-344.31
30
 -0.00
11
388.55
21
-345.91
31
 -0.00
0
LINE
8
CentreLine
10
388.55
20
-345.91
30
 -0.00
11
398.59
21
-342.65
31
 -0.00
0
LINE
8
CentreLine
10
398.59
20
-342.65
30
 -0.00
11
403.32
21
-347.38
31
 -0.00
0
LINE
8
CentreLine
10
403.32
20
-347.38
30
 -0.00
11
408.51
21
-349.59
31
 -0.00
0
LINE
8
CentreLine
10
408.51
20
-349.59
30
 -0.00
11
411.21
21
-349.40
31
 -0.00
0
LINE
8
CentreLine
10
411.21
20
-349.40
30
 -0.00
11
419.97
21
-346.21
31
 -0.00
0
LINE
8
CentreLine
10
419.97
20
-346.21
30
 -0.00
11
428.26
21
-343.51
31
 -0.00
0
LINE
8
CentreLine
10
428.26
20
-343.51
30
 -0.00
11
448.90
21
-331.60
31
 -0.00
0
LINE
8
CentreLine
10
448.90
20
-331.60
30
 -0.00
11
456.84
21
-328.56
31
 -0.00
0
LINE
8
CentreLine
10
456.84
20
-328.56
30
 -0.00
11
472.23
21
-316.53
31
 -0.00
0
LINE
8
CentreLine
10
472.23
20
-316.53
30
 -0.00
11
481.11
21
-312.76
31
 -0.00
0
LINE
8
CentreLine
10
481.11
20
-312.76
30
 -0.00
11
498.83
21
-307.00
31
 -0.00
0
LINE
8
CentreLine
10
498.83
20
-307.00
30
 -0.00
11
507.32
21
-301.05
31
 -0.00
0
LINE
8
CentreLine
10
507.32
20
-301.05
30
 -0.00
11
516.95
21
-296.56
31
 -0.00
0
LINE
8
CentreLine
10
516.95
20
-296.56
30
 -0.00
11
530.45
21
-293.20
31
 -0.00
0
LINE
8
CentreLine
10
530.45
20
-293.20
30
 -0.00
11
541.95
21
-290.54
31
 -0.00
0
LINE
8
CentreLine
10
541.95
20
-290.54
30
 -0.00
11
570.05
21
-277.44
31
 -0.00
0
LINE
8
CentreLine
10
570.05
20
-277.44
30
 -0.00
11
574.60
21
-276.13
31
 -0.00
0
LINE
8
CentreLine
10
574.60
20
-276.13
30
 -0.00
11
588.74
21
-275.15
31
 -0.00
0
LINE
8
CentreLine
10
588.74
20
-275.15
30
 -0.00
11
598.63
21
-272.13
31
 -0.00
0
LINE
8
CentreLine
10
598.63
20
-272.13
30
 -0.00
11
607.44
21
-269.60
31
 -0.00
0
LINE
8
CentreLine
10
607.44
20
-269.60
30
 -0.00
11
612.29
21
-264.75
31
 -0.00
0
LINE
8
CentreLine
10
612.29
20
-264.75
30
 -0.00
11
618.70
21
-262.42
31
 -0.00
0
LINE
8
CentreLine
10
618.70
20
-262.42
30
 -0.00
11
636.87
21
-262.42
31
 -0.00
0
LINE
8
CentreLine
10
636.87
20
-262.42
30
 -0.00
11
642.68
21
-269.34
31
 -0.00
0
LINE
8
CentreLine
10
642.68
20
-269.34
30
 -0.00
11
652.52
21
-272.16
31
 -0.00
0
LINE
8
CentreLine
10
652.52
20
-272.16
30
 -0.00
11
666.20
21
-272.16
31
 -0.00
0
LINE
8
CentreLine
10
666.20
20
-272.16
30
 -0.00
11
670.47
21
-271.17
31
 -0.00
0
LINE
8
CentreLine
10
670.47
20
-271.17
30
 -0.00
11
675.91
21
-274.19
31
 -0.00
0
LINE
8
CentreLine
10
675.91
20
-274.19
30
 -0.00
11
679.84
21
-274.46
31
 -0.00
0
LINE
8
CentreLine
10
679.84
20
-274.46
30
 -0.00
11
681.91
21
-276.32
31
 -0.00
0
LINE
8
CentreLine
10
681.91
20
-276.32
30
 -0.00
11
685.53
21
-277.79
31
 -0.00
0
LINE
8
CentreLine
10
685.53
20
-277.79
30
 -0.00
11
689.14
21
-281.79
31
 -0.00
0
LINE
8
CentreLine
10
689.14
20
-281.79
30
 -0.00
11
695.24
21
-285.75
31
 -0.00
0
LINE
8
CentreLine
10
695.24
20
-285.75
30
 -0.00
11
698.78
21
-285.75
31
 -0.00
0
LINE
8
CentreLine
10
698.78
20
-285.75
30
 -0.00
11
704.44
21
-289.43
31
 -0.00
0
LINE
8
CentreLine
10
704.44
20
-289.43
30
 -0.00
11
711.16
21
-294.67
31
 -0.00
0
LINE
8
CentreLine
10
711.16
20
-294.67
30
 -0.00
11
713.61
21
-296.39
31
 -0.00
0
LINE
8
CentreLine
10
713.61
20
-296.39
30
 -0.00
11
715.96
21
-300.45
31
 -0.00
0
LINE
8
CentreLine
10
715.96
20
-300.45
30
 -0.00
11
715.96
21
-305.84
31
 -0.00
0
LINE
8
CentreLine
10
715.96
20
-305.84
30
 -0.00
11
718.42
21
-306.28
31
 -0.00
0
LINE
8
CentreLine
10
718.42
20
-306.28
30
 -0.00
11
726.79
21
-313.55
31
 -0.00
0
LINE
8
CentreLine
10
726.79
20
-313.55
30
 -0.00
11
735.75
21
-319.15
31
 -0.00
0
LINE
8
CentreLine
10
735.75
20
-319.15
30
 -0.00
11
737.21
21
-320.89
31
 -0.00
0
LINE
8
CentreLine
10
737.21
20
-320.89
30
 -0.00
11
738.53
21
-323.39
31
 -0.00
0
LINE
8
CentreLine
10
738.53
20
-323.39
30
 -0.00
11
739.32
21
-323.79
31
 -0.00
0
LINE
8
CentreLine
10
739.32
20
-323.79
30
 -0.00
11
740.73
21
-326.81
31
 -0.00
0
LINE
8
CentreLine
10
740.73
20
-326.81
30
 -0.00
11
751.48
21
-328.90
31
 -0.00
0
LINE
8
CentreLine
10
751.48
20
-328.90
30
 -0.00
11
764.90
21
-329.60
31
 -0.00
0
LINE
8
CentreLine
10
764.90
20
-329.60
30
 -0.00
11
772.32
21
-328.56
31
 -0.00
0
LINE
8
CentreLine
10
772.32
20
-328.56
30
 -0.00
11
779.59
21
-334.24
31
 -0.00
0
LINE
8
CentreLine
10
779.59
20
-334.24
30
 -0.00
11
783.21
21
-334.55
31
 -0.00
0
LINE
8
CentreLine
10
783.21
20
-334.55
30
 -0.00
11
790.21
21
-334.92
31
 -0.00
0
LINE
8
CentreLine
10
790.21
20
-334.92
30
 -0.00
11
793.86
21
-333.73
31
 -0.00
0
LINE
8
CentreLine
10
793.86
20
-333.73
30
 -0.00
11
818.17
21
-333.73
31
 -0.00
0
LINE
8
CentreLine
10
818.17
20
-333.73
30
 -0.00
11
842.59
21
-332.45
31
 -0.00
0
LINE
8
CentreLine
10
842.59
20
-332.45
30
 -0.00
11
848.66
21
-328.20
31
 -0.00
0
LINE
8
CentreLine
10
848.66
20
-328.20
30
 -0.00
11
857.00
21
-325.80
31
 -0.00
0
LINE
8
CentreLine
10
857.00
20
-325.80
30
 -0.00
11
864.94
21
-323.97
31
 -0.00
0
LINE
8
CentreLine
10
864.94
20
-323.97
30
 -0.00
11
879.76
21
-325.79
31
 -0.00
0
LINE
8
CentreLine
10
879.76
20
-325.79
30
 -0.00
11
887.62
21
-329.29
31
 -0.00
0
LINE
8
CentreLine
10
887.62
20
-329.29
30
 -0.00
11
895.66
21
-333.75
31
 -0.00
0
LINE
8
CentreLine
10
895.66
20
-333.75
30
 -0.00
11
901.67
21
-335.13
31
 -0.00
0
LINE
8
CentreLine
10
901.67
20
-335.13
30
 -0.00
11
910.40
21
-334.83
31
 -0.00
0
LINE
8
CentreLine
10
910.40
20
-334.83
30
 -0.00
11
912.74
21
-335.32
31
 -0.00
0
LINE
8
CentreLine
10
912.74
20
-335.32
30
 -0.00
11
914.01
21
-335.69
31
 -0.00
0
LINE
8
CentreLine
10
914.01
20
-335.69
30
 -0.00
11
921.61
21
-344.13
31
 -0.00
0
LINE
8
CentreLine
10
921.61
20
-344.13
30
 -0.00
11
930.82
21
-349.03
31
 -0.00
0
LINE
8
CentreLine
10
930.82
20
-349.03
30
 -0.00
11
933.95
21
-352.26
31
 -0.00
0
LINE
8
CentreLine
10
933.95
20
-352.26
30
 -0.00
11
946.23
21
-353.77
31
 -0.00
0
LINE
8
CentreLine
10
946.23
20
-353.77
30
 -0.00
11
946.23
21
-349.52
31
 -0.00
0
LINE
8
CentreLine
10
946.23
20
-349.52
30
 -0.00
11
956.43
21
-351.13
31
 -0.00
0
LINE
8
CentreLine
10
956.43
20
-351.13
30
 -0.00
11
969.06
21
-351.35
31
 -0.00
0
LINE
8
CentreLine
10
969.06
20
-351.35
30
 -0.00
11
970.29
21
-351.98
31
 -0.00
0
LINE
8
CentreLine
10
970.29
20
-351.98
30
 -0.00
11
993.98
21
-343.36
31
 -0.00
0
LINE
8
CentreLine
10
993.98
20
-343.36
30
 -0.00
11
1001.90
21
-342.53
31
 -0.00
0
LINE
8
CentreLine
10
1001.90
20
-342.53
30
 -0.00
11
1015.28
21
-335.71
31
 -0.00
0
LINE
8
CentreLine
10
1015.28
20
-335.71
30
 -0.00
11
1027.43
21
-318.97
31
 -0.00
0
LINE
8
CentreLine
10
1001.90
20
-342.53
30
 -0.00
11
1004.25
21
-343.02
31
 -0.00
0
LINE
8
CentreLine
10
1004.25
20
-343.02
30
 -0.00
11
1009.30
21
-349.49
31
 -0.00
0
LINE
8
CentreLine
10
1009.30
20
-349.49
30
 -0.00
11
1022.12
21
-360.64
31
 -0.00
0
LINE
8
CentreLine
10
1022.12
20
-360.64
30
 -0.00
11
1024.03
21
-361.26
31
 -0.00
0
LINE
8
CentreLine
10
1024.03
20
-361.26
30
 -0.00
11
1033.07
21
-365.28
31
 -0.00
0
LINE
8
CentreLine
10
1033.07
20
-365.28
30
 -0.00
11
1046.88
21
-370.87
31
 -0.00
0
LINE
8
CentreLine
10
1046.88
20
-370.87
30
 -0.00
11
1057.88
21
-374.23
31
 -0.00
0
LINE
8
CentreLine
10
1057.88
20
-374.23
30
 -0.00
11
1065.11
21
-375.24
31
 -0.00
0
LINE
8
CentreLine
10
1065.11
20
-375.24
30
 -0.00
11
1076.71
21
-374.84
31
 -0.00
0
LINE
8
CentreLine
10
1076.71
20
-374.84
30
 -0.00
11
1086.64
21
-378.26
31
 -0.00
0
LINE
8
CentreLine
10
1086.64
20
-378.26
30
 -0.00
11
1095.03
21
-377.96
31
 -0.00
0
LINE
8
CentreLine
10
1095.03
20
-377.96
30
 -0.00
11
1099.91
21
-381.64
31
 -0.00
0
LINE
8
CentreLine
10
1099.91
20
-381.64
30
 -0.00
11
1109.27
21
-384.15
31
 -0.00
0
LINE
8
CentreLine
10
1109.27
20
-384.15
30
 -0.00
11
1114.57
21
-383.96
31
 -0.00
0
LINE
8
CentreLine
10
1114.57
20
-383.96
30
 -0.00
11
1120.22
21
-386.25
31
 -0.00
0
LINE
8
CentreLine
10
1120.22
20
-386.25
30
 -0.00
11
1127.73
21
-389.28
31
 -0.00
0
LINE
8
CentreLine
10
1127.73
20
-389.28
30
 -0.00
11
1141.90
21
-393.88
31
 -0.00
0
LINE
8
CentreLine
10
1141.90
20
-393.88
30
 -0.00
11
1164.37
21
-400.76
31
 -0.00
0
LINE
8
CentreLine
10
1120.22
20
-386.25
30
 -0.00
11
1129.27
21
-383.48
31
 -0.00
0
LINE
8
CentreLine
10
1129.27
20
-383.48
30
 -0.00
11
1135.88
21
-382.44
31
 -0.00
0
LINE
8
CentreLine
10
1135.88
20
-382.44
30
 -0.00
11
1148.54
21
-380.88
31
 -0.00
0
LINE
8
CentreLine
10
1148.54
20
-380.88
30
 -0.00
11
1161.78
21
-373.23
31
 -0.00
0
LINE
8
CentreLine
10
309.43
20
-337.35
30
 -0.00
11
322.28
21
-326.17
31
 -0.00
0
LINE
8
CentreLine
10
-185.66
20
-250.60
30
  0.00
11
-179.79
21
-249.67
31
  0.00
0
LINE
8
CentreLine
10
-179.79
20
-249.67
30
  0.00
11
-174.20
21
-251.28
31
  0.00
0
LINE
8
CentreLine
10
-174.20
20
-251.28
30
  0.00
11
-167.57
21
-249.75
31
  0.00
0
LINE
8
CentreLine
10
-167.57
20
-249.75
30
  0.00
11
-160.01
21
-250.14
31
  0.00
0
LINE
8
CentreLine
10
-217.94
20
-252.35
30
  0.00
11
-216.47
21
-252.85
31
  0.00
0
LINE
8
CentreLine
10
-216.47
20
-252.85
30
  0.00
11
-204.33
21
-260.74
31
  0.00
0
LINE
8
CentreLine
10
-204.33
20
-260.74
30
  0.00
11
-203.15
21
-261.92
31
  0.00
0
LINE
8
CentreLine
10
-203.15
20
-261.92
30
  0.00
11
-200.66
21
-261.96
31
  0.00
0
LINE
8
CentreLine
10
-200.66
20
-261.96
30
  0.00
11
-196.80
21
-262.37
31
  0.00
0
LINE
8
CentreLine
10
-196.80
20
-262.37
30
  0.00
11
-190.28
21
-266.44
31
  0.00
0
LINE
8
CentreLine
10
-190.28
20
-266.44
30
  0.00
11
-183.49
21
-267.63
31
  0.00
0
LINE
8
CentreLine
10
-183.49
20
-267.63
30
  0.00
11
-180.18
21
-271.87
31
  0.00
0
LINE
8
CentreLine
10
-180.18
20
-271.87
30
  0.00
11
-175.21
21
-271.08
31
  0.00
0
LINE
8
CentreLine
10
-175.21
20
-271.08
30
  0.00
11
-175.21
21
-274.09
31
  0.00
0
LINE
8
CentreLine
10
-175.21
20
-274.09
30
  0.00
11
-170.57
21
-276.25
31
  0.00
0
LINE
8
CentreLine
10
-170.57
20
-276.25
30
  0.00
11
-167.49
21
-275.59
31
  0.00
0
LINE
8
CentreLine
10
-167.49
20
-275.59
30
  0.00
11
-165.83
21
-277.80
31
  0.00
0
LINE
8
CentreLine
10
-165.83
20
-277.80
30
  0.00
11
-158.14
21
-277.40
31
  0.00
0
LINE
8
CentreLine
10
-158.14
20
-277.40
30
  0.00
11
-152.06
21
-282.68
31
  0.00
0
LINE
8
CentreLine
10
-152.06
20
-282.68
30
  0.00
11
-145.60
21
-283.02
31
  0.00
0
LINE
8
CentreLine
10
-145.60
20
-283.02
30
  0.00
11
-143.63
21
-283.55
31
  0.00
0
LINE
8
CentreLine
10
-143.63
20
-283.55
30
  0.00
11
-138.10
21
-283.07
31
  0.00
0
LINE
8
CentreLine
10
-138.10
20
-283.07
30
  0.00
11
-135.14
21
-282.81
31
  0.00
0
LINE
8
CentreLine
10
-135.14
20
-282.81
30
  0.00
11
-130.64
21
-283.76
31
  0.00
0
LINE
8
CentreLine
10
-130.64
20
-283.76
30
  0.00
11
-126.62
21
-284.40
31
  0.00
0
LINE
8
CentreLine
10
-126.62
20
-284.40
30
  0.00
11
-120.85
21
-283.59
31
  0.00
0
LINE
8
CentreLine
10
-120.85
20
-283.59
30
  0.00
11
-111.38
21
-283.42
31
  0.00
0
LINE
8
CentreLine
10
-111.38
20
-283.42
30
  0.00
11
-106.54
21
-285.68
31
  0.00
0
LINE
8
CentreLine
10
-106.54
20
-285.68
30
  0.00
11
-102.81
21
-285.75
31
  0.00
0
LINE
8
CentreLine
10
-102.81
20
-285.75
30
  0.00
11
-98.30
21
-285.51
31
  0.00
0
LINE
8
CentreLine
10
-98.30
20
-285.51
30
  0.00
11
-91.34
21
-285.75
31
  0.00
0
LINE
8
CentreLine
10
-91.34
20
-285.75
30
  0.00
11
-80.10
21
-285.95
31
  0.00
0
LINE
8
CentreLine
10
-80.10
20
-285.95
30
  0.00
11
-74.40
21
-285.55
31
  0.00
0
LINE
8
CentreLine
10
-74.40
20
-285.55
30
  0.00
11
-67.86
21
-284.40
31
  0.00
0
LINE
8
CentreLine
10
-67.86
20
-284.40
30
  0.00
11
-63.06
21
-287.17
31
  0.00
0
LINE
8
CentreLine
10
-63.06
20
-287.17
30
  0.00
11
-61.00
21
-287.96
31
  0.00
0
LINE
8
CentreLine
10
-61.00
20
-287.96
30
  0.00
11
-58.02
21
-288.87
31
  0.00
0
LINE
8
CentreLine
10
-58.02
20
-288.87
30
  0.00
11
-43.86
21
-291.11
31
  0.00
0
LINE
8
CentreLine
10
-43.86
20
-291.11
30
  0.00
11
-38.20
21
-289.60
31
  0.00
0
LINE
8
CentreLine
10
-38.20
20
-289.60
30
  0.00
11
-31.06
21
-287.82
31
  0.00
0
LINE
8
CentreLine
10
-31.06
20
-287.82
30
  0.00
11
-26.35
21
-290.12
31
  0.00
0
LINE
8
CentreLine
10
-26.35
20
-290.12
30
  0.00
11
-20.42
21
-290.95
31
  0.00
0
LINE
8
CentreLine
10
-20.42
20
-290.95
30
  0.00
11
-18.62
21
-294.33
31
  0.00
0
LINE
8
CentreLine
10
-18.62
20
-294.33
30
  0.00
11
-15.12
21
-293.45
31
  0.00
0
LINE
8
CentreLine
10
-15.12
20
-293.45
30
  0.00
11
 -4.94
21
-294.70
31
  0.00
0
LINE
8
CentreLine
10
 -4.94
20
-294.70
30
  0.00
11
  1.24
21
-294.27
31
 -0.00
0
LINE
8
CentreLine
10
  1.24
20
-294.27
30
 -0.00
11
  5.06
21
-294.27
31
 -0.00
0
LINE
8
CentreLine
10
  5.06
20
-294.27
30
 -0.00
11
  9.59
21
-296.38
31
 -0.00
0
LINE
8
CentreLine
10
  9.59
20
-296.38
30
 -0.00
11
 19.95
21
-295.29
31
 -0.00
0
LINE
8
CentreLine
10
 19.95
20
-295.29
30
 -0.00
11
 24.65
21
-296.29
31
 -0.00
0
LINE
8
CentreLine
10
 24.65
20
-296.29
30
 -0.00
11
 26.76
21
-298.64
31
 -0.00
0
LINE
8
CentreLine
10
 26.76
20
-298.64
30
 -0.00
11
 30.84
21
-298.64
31
 -0.00
0
LINE
8
CentreLine
10
 30.84
20
-298.64
30
 -0.00
11
 30.84
21
-302.14
31
 -0.00
0
LINE
8
CentreLine
10
 30.84
20
-302.14
30
 -0.00
11
 34.64
21
-303.92
31
 -0.00
0
LINE
8
CentreLine
10
 34.64
20
-303.92
30
 -0.00
11
 38.29
21
-308.42
31
 -0.00
0
LINE
8
CentreLine
10
 38.29
20
-308.42
30
 -0.00
11
 41.07
21
-311.01
31
 -0.00
0
LINE
8
CentreLine
10
 41.07
20
-311.01
30
 -0.00
11
 42.31
21
-310.01
31
 -0.00
0
LINE
8
CentreLine
10
 42.31
20
-310.01
30
 -0.00
11
 45.16
21
-311.22
31
 -0.00
0
LINE
8
CentreLine
10
 45.16
20
-311.22
30
 -0.00
11
 46.04
21
-312.79
31
 -0.00
0
LINE
8
CentreLine
10
 46.04
20
-312.79
30
 -0.00
11
 48.44
21
-314.41
31
 -0.00
0
LINE
8
CentreLine
10
 48.44
20
-314.41
30
 -0.00
11
 50.70
21
-314.02
31
 -0.00
0
LINE
8
CentreLine
10
 50.70
20
-314.02
30
 -0.00
11
 50.70
21
-322.22
31
 -0.00
0
LINE
8
CentreLine
10
  1.24
20
-294.27
30
 -0.00
11
 11.21
21
-296.39
31
 -0.00
0
LINE
8
CentreLine
10
 11.21
20
-296.39
30
 -0.00
11
 14.70
21
-297.32
31
 -0.00
0
LINE
8
CentreLine
10
 14.70
20
-297.32
30
 -0.00
11
 18.39
21
-298.67
31
 -0.00
0
LINE
8
CentreLine
10
 18.39
20
-298.67
30
 -0.00
11
 27.33
21
-301.92
31
 -0.00
0
LINE
8
CentreLine
10
 27.33
20
-301.92
30
 -0.00
11
 28.52
21
-302.05
31
 -0.00
0
LINE
8
CentreLine
10
 28.52
20
-302.05
30
 -0.00
11
 30.06
21
-303.48
31
 -0.00
0
LINE
8
CentreLine
10
 30.06
20
-303.48
30
 -0.00
11
 35.19
21
-306.21
31
 -0.00
0
LINE
8
CentreLine
10
 35.19
20
-306.21
30
 -0.00
11
 36.95
21
-306.92
31
 -0.00
0
LINE
8
CentreLine
10
 36.95
20
-306.92
30
 -0.00
11
 45.08
21
-311.06
31
 -0.00
0
LINE
8
CentreLine
10
 45.08
20
-311.06
30
 -0.00
11
 50.81
21
-317.43
31
 -0.00
0
LINE
8
CentreLine
10
 50.81
20
-317.43
30
 -0.00
11
 58.19
21
-318.86
31
 -0.00
0
LINE
8
CentreLine
10
 58.19
20
-318.86
30
 -0.00
11
 60.17
21
-322.02
31
 -0.00
0
LINE
8
CentreLine
10
 60.17
20
-322.02
30
 -0.00
11
 65.93
21
-322.22
31
 -0.00
0
LINE
8
CentreLine
10
 65.93
20
-322.22
30
 -0.00
11
 74.79
21
-323.46
31
 -0.00
0
LINE
8
CentreLine
10
 74.79
20
-323.46
30
 -0.00
11
 79.94
21
-324.56
31
 -0.00
0
LINE
8
CentreLine
10
 79.94
20
-324.56
30
 -0.00
11
 79.94
21
-324.98
31
 -0.00
0
LINE
8
CentreLine
10
 79.94
20
-324.98
30
 -0.00
11
 88.92
21
-325.13
31
 -0.00
0
LINE
8
CentreLine
10
 88.92
20
-325.13
30
 -0.00
11
 93.16
21
-327.20
31
 -0.00
0
LINE
8
CentreLine
10
 93.16
20
-327.20
30
 -0.00
11
 95.33
21
-327.59
31
 -0.00
0
LINE
8
CentreLine
10
 95.33
20
-327.59
30
 -0.00
11
 97.78
21
-331.98
31
 -0.00
0
LINE
8
CentreLine
10
 97.78
20
-331.98
30
 -0.00
11
105.65
21
-333.37
31
 -0.00
0
LINE
8
CentreLine
10
-91.34
20
-285.75
30
  0.00
11
-77.24
21
-280.62
31
  0.00
0
LINE
8
CentreLine
10
-91.34
20
-285.75
30
  0.00
11
-84.33
21
-282.92
31
  0.00
0
LINE
8
CentreLine
10
-84.33
20
-282.92
30
  0.00
11
-79.69
21
-281.50
31
  0.00
0
LINE
8
CentreLine
10
-79.69
20
-281.50
30
  0.00
11
-66.10
21
-275.16
31
  0.00
0
LINE
8
CentreLine
10
-66.10
20
-275.16
30
  0.00
11
-61.98
21
-273.33
31
  0.00
0
LINE
8
CentreLine
10
-61.98
20
-273.33
30
  0.00
11
-57.64
21
-271.40
31
  0.00
0
LINE
8
CentreLine
10
-57.64
20
-271.40
30
  0.00
11
-49.79
21
-270.58
31
  0.00
0
LINE
8
CentreLine
10
-49.79
20
-270.58
30
  0.00
11
-47.33
21
-270.14
31
  0.00
0
LINE
8
CentreLine
10
-47.33
20
-270.14
30
  0.00
11
-37.79
21
-269.47
31
  0.00
0
LINE
8
CentreLine
10
-37.79
20
-269.47
30
  0.00
11
-35.18
21
-268.52
31
  0.00
0
LINE
8
CentreLine
10
-35.18
20
-268.52
30
  0.00
11
-32.01
21
-267.91
31
  0.00
0
LINE
8
CentreLine
10
-32.01
20
-267.91
30
  0.00
11
-29.00
21
-268.77
31
  0.00
0
LINE
8
CentreLine
10
-29.00
20
-268.77
30
  0.00
11
-25.32
21
-268.45
31
  0.00
0
LINE
8
CentreLine
10
-25.32
20
-268.45
30
  0.00
11
-20.52
21
-269.29
31
  0.00
0
LINE
8
CentreLine
10
-20.52
20
-269.29
30
  0.00
11
-18.27
21
-269.10
31
  0.00
0
LINE
8
CentreLine
10
-18.27
20
-269.10
30
  0.00
11
-18.27
21
-268.38
31
  0.00
0
LINE
8
CentreLine
10
-18.27
20
-268.38
30
  0.00
11
-13.28
21
-268.38
31
  0.00
0
LINE
8
CentreLine
10
-13.28
20
-268.38
30
  0.00
11
 -9.64
21
-268.12
31
  0.00
0
LINE
8
CentreLine
10
 -9.64
20
-268.12
30
  0.00
11
 -7.36
21
-268.82
31
  0.00
0
LINE
8
CentreLine
10
 -7.36
20
-268.82
30
  0.00
11
 -3.24
21
-266.34
31
  0.00
0
LINE
8
CentreLine
10
 -3.24
20
-266.34
30
  0.00
11
  8.67
21
-267.17
31
 -0.00
0
LINE
8
CentreLine
10
  8.67
20
-267.17
30
 -0.00
11
 15.80
21
-271.80
31
 -0.00
0
LINE
8
CentreLine
10
 15.80
20
-271.80
30
 -0.00
11
 22.05
21
-274.98
31
 -0.00
0
LINE
8
CentreLine
10
  8.67
20
-267.17
30
 -0.00
11
  9.57
21
-267.17
31
 -0.00
0
LINE
8
CentreLine
10
  9.57
20
-267.17
30
 -0.00
11
  9.57
21
-252.57
31
 -0.00
0
LINE
8
CentreLine
10
  9.57
20
-252.57
30
 -0.00
11
 11.51
21
-252.85
31
 -0.00
0
LINE
8
CentreLine
10
 11.51
20
-252.85
30
 -0.00
11
 14.32
21
-253.24
31
 -0.00
0
LINE
8
CentreLine
10
 14.32
20
-253.24
30
 -0.00
11
 16.66
21
-253.78
31
 -0.00
0
LINE
8
CentreLine
10
 16.66
20
-253.78
30
 -0.00
11
 18.93
21
-254.39
31
 -0.00
0
LINE
8
CentreLine
10
 18.93
20
-254.39
30
 -0.00
11
 21.53
21
-255.95
31
 -0.00
0
LINE
8
CentreLine
10
 21.53
20
-255.95
30
 -0.00
11
 26.68
21
-257.62
31
 -0.00
0
LINE
8
CentreLine
10
 26.68
20
-257.62
30
 -0.00
11
 34.48
21
-257.35
31
 -0.00
0
LINE
8
CentreLine
10
 34.48
20
-257.35
30
 -0.00
11
 37.60
21
-258.43
31
 -0.00
0
LINE
8
CentreLine
10
 37.60
20
-258.43
30
 -0.00
11
 39.99
21
-258.98
31
 -0.00
0
LINE
8
CentreLine
10
-120.85
20
-283.59
30
  0.00
11
-117.40
21
-283.41
31
  0.00
0
LINE
8
CentreLine
10
-117.40
20
-283.41
30
  0.00
11
-107.70
21
-283.24
31
  0.00
0
LINE
8
CentreLine
10
-107.70
20
-283.24
30
  0.00
11
-99.73
21
-281.98
31
  0.00
0
LINE
8
CentreLine
10
-99.73
20
-281.98
30
  0.00
11
-98.88
21
-280.88
31
  0.00
0
LINE
8
CentreLine
10
-98.88
20
-280.88
30
  0.00
11
-94.16
21
-279.70
31
  0.00
0
LINE
8
CentreLine
10
-94.16
20
-279.70
30
  0.00
11
-89.79
21
-278.62
31
  0.00
0
LINE
8
CentreLine
10
-89.79
20
-278.62
30
  0.00
11
-87.22
21
-277.13
31
  0.00
0
LINE
8
CentreLine
10
-87.22
20
-277.13
30
  0.00
11
-83.63
21
-275.83
31
  0.00
0
LINE
8
CentreLine
10
-83.63
20
-275.83
30
  0.00
11
-80.66
21
-275.83
31
  0.00
0
LINE
8
CentreLine
10
-80.66
20
-275.83
30
  0.00
11
-69.33
21
-275.43
31
  0.00
0
LINE
8
CentreLine
10
-69.33
20
-275.43
30
  0.00
11
-62.06
21
-275.43
31
  0.00
0
LINE
8
CentreLine
10
-69.33
20
-275.43
30
  0.00
11
-66.92
21
-275.43
31
  0.00
0
LINE
8
CentreLine
10
-66.92
20
-275.43
30
  0.00
11
-64.75
21
-275.66
31
  0.00
0
LINE
8
CentreLine
10
-64.75
20
-275.66
30
  0.00
11
-62.38
21
-274.98
31
  0.00
0
LINE
8
CentreLine
10
-62.38
20
-274.98
30
  0.00
11
-59.92
21
-274.81
31
  0.00
0
LINE
8
CentreLine
10
-59.92
20
-274.81
30
  0.00
11
-54.73
21
-275.08
31
  0.00
0
LINE
8
CentreLine
10
-107.70
20
-283.24
30
  0.00
11
-102.08
21
-285.28
31
  0.00
0
LINE
8
CentreLine
10
-102.08
20
-285.28
30
  0.00
11
-96.29
21
-286.73
31
  0.00
0
LINE
8
CentreLine
10
-96.29
20
-286.73
30
  0.00
11
-90.51
21
-286.93
31
  0.00
0
LINE
8
CentreLine
10
-90.51
20
-286.93
30
  0.00
11
-88.50
21
-289.80
31
  0.00
0
LINE
8
CentreLine
10
-88.50
20
-289.80
30
  0.00
11
-83.62
21
-290.22
31
  0.00
0
LINE
8
CentreLine
10
-83.62
20
-290.22
30
  0.00
11
-80.00
21
-289.91
31
  0.00
0
LINE
8
CentreLine
10
-80.00
20
-289.91
30
  0.00
11
-76.69
21
-290.31
31
  0.00
0
LINE
8
CentreLine
10
-76.69
20
-290.31
30
  0.00
11
-73.37
21
-299.41
31
  0.00
0
LINE
8
CentreLine
10
-73.37
20
-299.41
30
  0.00
11
-67.36
21
-300.15
31
  0.00
0
LINE
8
CentreLine
10
-67.36
20
-300.15
30
  0.00
11
-67.36
21
-307.49
31
  0.00
0
LINE
8
CentreLine
10
-67.36
20
-307.49
30
  0.00
11
-47.99
21
-309.87
31
  0.00
0
LINE
8
CentreLine
10
-47.99
20
-309.87
30
  0.00
11
-38.19
21
-309.52
31
  0.00
0
LINE
8
CentreLine
10
-38.19
20
-309.52
30
  0.00
11
-30.75
21
-309.52
31
  0.00
0
LINE
8
CentreLine
10
-30.75
20
-309.52
30
  0.00
11
-23.76
21
-309.28
31
  0.00
0
LINE
8
CentreLine
10
-23.76
20
-309.28
30
  0.00
11
-13.46
21
-309.10
31
  0.00
0
LINE
8
CentreLine
10
-13.46
20
-309.10
30
  0.00
11
  3.99
21
-309.10
31
 -0.00
0
LINE
8
CentreLine
10
-76.69
20
-290.31
30
  0.00
11
-71.23
21
-290.22
31
  0.00
0
LINE
8
CentreLine
10
-71.23
20
-290.22
30
  0.00
11
-71.23
21
-290.96
31
  0.00
0
LINE
8
CentreLine
10
-71.23
20
-290.96
30
  0.00
11
-66.94
21
-291.26
31
  0.00
0
LINE
8
CentreLine
10
-66.94
20
-291.26
30
  0.00
11
-57.11
21
-290.23
31
  0.00
0
LINE
8
CentreLine
10
-57.11
20
-290.23
30
  0.00
11
-50.05
21
-291.60
31
  0.00
0
LINE
8
CentreLine
10
-50.05
20
-291.60
30
  0.00
11
-46.79
21
-291.60
31
  0.00
0
LINE
8
CentreLine
10
-46.79
20
-291.60
30
  0.00
11
-45.40
21
-291.40
31
  0.00
0
LINE
8
CentreLine
10
-45.40
20
-291.40
30
  0.00
11
-41.88
21
-290.32
31
  0.00
0
LINE
8
CentreLine
10
-41.88
20
-290.32
30
  0.00
11
-36.37
21
-290.61
31
  0.00
0
LINE
8
CentreLine
10
-36.37
20
-290.61
30
  0.00
11
-33.94
21
-289.16
31
  0.00
0
LINE
8
CentreLine
10
-33.94
20
-289.16
30
  0.00
11
-30.00
21
-288.03
31
  0.00
0
LINE
8
CentreLine
10
-30.00
20
-288.03
30
  0.00
11
-28.67
21
-289.50
31
  0.00
0
LINE
8
CentreLine
10
-28.67
20
-289.50
30
  0.00
11
-25.71
21
-288.05
31
  0.00
0
LINE
8
CentreLine
10
-25.71
20
-288.05
30
  0.00
11
-21.02
21
-287.31
31
  0.00
0
LINE
8
CentreLine
10
-21.02
20
-287.31
30
  0.00
11
-16.80
21
-285.77
31
  0.00
0
LINE
8
CentreLine
10
-16.80
20
-285.77
30
  0.00
11
-13.25
21
-287.50
31
  0.00
0
LINE
8
CentreLine
10
-13.25
20
-287.50
30
  0.00
11
 -6.99
21
-286.40
31
  0.00
0
LINE
8
CentreLine
10
 -6.99
20
-286.40
30
  0.00
11
 -4.34
21
-285.64
31
  0.00
0
LINE
8
CentreLine
10
-180.18
20
-271.87
30
  0.00
11
-176.93
21
-270.81
31
  0.00
0
LINE
8
CentreLine
10
-176.93
20
-270.81
30
  0.00
11
-171.97
21
-266.34
31
  0.00
0
LINE
8
CentreLine
10
-171.97
20
-266.34
30
  0.00
11
-170.40
21
-266.34
31
  0.00
0
LINE
8
CentreLine
10
-170.40
20
-266.34
30
  0.00
11
-159.65
21
-260.62
31
  0.00
0
LINE
8
CentreLine
10
-159.65
20
-260.62
30
  0.00
11
-154.39
21
-258.92
31
  0.00
0
LINE
8
CentreLine
10
-335.98
20
-243.35
30
  0.00
11
-324.23
21
-241.49
31
  0.00
0
LINE
8
CentreLine
10
-324.23
20
-241.49
30
  0.00
11
-319.81
21
-240.71
31
  0.00
0
LINE
8
CentreLine
10
-319.81
20
-240.71
30
  0.00
11
-314.76
21
-239.36
31
  0.00
0
LINE
8
CentreLine
10
-314.76
20
-239.36
30
  0.00
11
-309.84
21
-241.15
31
  0.00
0
LINE
8
CentreLine
10
-309.84
20
-241.15
30
  0.00
11
-304.78
21
-239.51
31
  0.00
0
LINE
8
CentreLine
10
-461.44
20
-170.12
30
  0.00
11
-455.39
21
-168.39
31
  0.00
0
LINE
8
CentreLine
10
-455.39
20
-168.39
30
  0.00
11
-441.58
21
-165.45
31
  0.00
0
LINE
8
CentreLine
10
-441.58
20
-165.45
30
  0.00
11
-432.91
21
-166.98
31
  0.00
0
LINE
8
CentreLine
10
-543.86
20
-152.47
30
  0.00
11
-537.68
21
-156.04
31
  0.00
0
LINE
8
CentreLine
10
-537.68
20
-156.04
30
  0.00
11
-534.21
21
-159.28
31
  0.00
0
LINE
8
CentreLine
10
-534.21
20
-159.28
30
  0.00
11
-534.21
21
-162.18
31
  0.00
0
LINE
8
CentreLine
10
-534.21
20
-162.18
30
  0.00
11
-533.71
21
-162.18
31
  0.00
0
LINE
8
CentreLine
10
-533.71
20
-162.18
30
  0.00
11
-533.71
21
-172.46
31
  0.00
0
LINE
8
CentreLine
10
-533.71
20
-172.46
30
  0.00
11
-527.71
21
-172.46
31
  0.00
0
LINE
8
CentreLine
10
-705.31
20
-143.60
30
  0.00
11
-696.40
21
-146.66
31
  0.00
0
LINE
8
CentreLine
10
-816.74
20
-38.31
30
  0.00
11
-812.47
21
-40.88
31
  0.00
0
LINE
8
CentreLine
10
-812.47
20
-40.88
30
  0.00
11
-810.10
21
-41.48
31
  0.00
0
LINE
8
CentreLine
10
-810.10
20
-41.48
30
  0.00
11
-806.08
21
-42.55
31
  0.00
0
LINE
8
CentreLine
10
-806.08
20
-42.55
30
  0.00
11
-804.14
21
-47.36
31
  0.00
0
LINE
8
CentreLine
10
-804.14
20
-47.36
30
  0.00
11
-796.89
21
-50.74
31
  0.00
0
LINE
8
CentreLine
10
-956.15
20
191.97
30
  0.00
11
-954.06
21
189.88
31
  0.00
0
LINE
8
CentreLine
10
-954.06
20
189.88
30
  0.00
11
-953.17
21
185.25
31
  0.00
0
LINE
8
CentreLine
10
-953.17
20
185.25
30
  0.00
11
-950.15
21
182.97
31
  0.00
0
LINE
8
CentreLine
10
-950.15
20
182.97
30
  0.00
11
-945.24
21
182.89
31
  0.00
0
LINE
8
CentreLine
10
-945.24
20
182.89
30
  0.00
11
-943.00
21
181.38
31
  0.00
0
LINE
8
CentreLine
10
-943.00
20
181.38
30
  0.00
11
-938.52
21
180.17
31
  0.00
0
LINE
8
CentreLine
10
-1117.20
20
369.60
30
  0.00
11
-1105.99
21
362.87
31
  0.00
0
LINE
8
CentreLine
10
-1105.99
20
362.87
30
  0.00
11
-1101.38
21
361.63
31
  0.00
0
LINE
8
CentreLine
10
-1101.38
20
361.63
30
  0.00
11
-1096.58
21
345.95
31
  0.00
0
LINE
8
CentreLine
10
-1096.58
20
345.95
30
  0.00
11
-1089.20
21
340.97
31
  0.00
0
LINE
8
CentreLine
10
-1089.20
20
340.97
30
  0.00
11
-1087.70
21
340.97
31
  0.00
0
LINE
8
CentreLine
10
-1087.70
20
340.97
30
  0.00
11
-1086.73
21
331.72
31
  0.00
0
LINE
8
CentreLine
10
-1086.73
20
331.72
30
  0.00
11
-1080.10
21
328.91
31
  0.00
0
LINE
8
CentreLine
10
-1080.10
20
328.91
30
  0.00
11
-1079.16
21
324.82
31
  0.00
0
LINE
8
CentreLine
10
-1079.16
20
324.82
30
  0.00
11
-1074.65
21
323.17
31
  0.00
0
LINE
8
CentreLine
10
-1074.65
20
323.17
30
  0.00
11
-1070.40
21
322.50
31
  0.00
0
LINE
8
CentreLine
10
-1070.40
20
322.50
30
  0.00
11
-1070.40
21
315.70
31
  0.00
0
LINE
8
CentreLine
10
-1070.40
20
315.70
30
  0.00
11
-1059.69
21
311.80
31
  0.00
000
ENDSEC
000
EOF
