0
SECTION
2
HEADER
9
$EXTMIN
10
-446.545000
20
-544.795000
30
-391.285000
9
$EXTMAX
10
446.545000
20
544.795000
30
391.285000
9
$PDMODE
70
3
9
$PDSIZE
40
  0.80
0
ENDSEC
0
SECTION
2
TABLES
0
TABLE
2
LTYPE
70
10
0
LTYPE
2
CONTINUOUS
70
64
3
Continuous
72
65
73
0
40
0.0
0
LTYPE
2
DASHED
70
64
3
Dashed
72
65
73
2
40
2.5
49
1.25
49
-1.25
0
ENDTAB
0
TABLE
2
LAYER
70
10
0
LAYER
2
CentreLine
70
64
62
5
6
CONTINUOUS
0
LAYER
2
Stations
70
64
62
7
6
CONTINUOUS
0
LAYER
2
Labels
70
64
62
7
6
CONTINUOUS
0
LAYER
2
Surface
70
64
62
5
6
DASHED
0
LAYER
2
SurfaceStations
70
64
62
7
6
CONTINUOUS
0
LAYER
2
SurfaceLabels
70
64
62
7
6
CONTINUOUS
0
ENDTAB
0
ENDSEC
0
SECTION
2
ENTITIES
0
LINE
8
CentreLine
10
-248.63
20
-107.71
30
196.12
11
-248.62
21
-107.85
31
187.25
0
LINE
8
CentreLine
10
-248.62
20
-107.85
30
187.25
11
-248.63
21
-107.87
31
167.28
0
LINE
8
CentreLine
10
-248.63
20
-107.87
30
167.28
11
-254.97
21
-116.86
31
161.36
0
LINE
8
CentreLine
10
-254.97
20
-116.86
30
161.36
11
-258.00
21
-118.27
31
158.38
0
LINE
8
CentreLine
10
-258.00
20
-118.27
30
158.38
11
-258.06
21
-121.27
31
158.24
0
LINE
8
CentreLine
10
-258.06
20
-121.27
30
158.24
11
-263.49
21
-123.03
31
151.56
0
LINE
8
CentreLine
10
-263.49
20
-123.03
30
151.56
11
-265.32
21
-123.89
31
146.59
0
LINE
8
CentreLine
10
-265.32
20
-123.89
30
146.59
11
-264.00
21
-125.80
31
138.98
0
LINE
8
CentreLine
10
-264.00
20
-125.80
30
138.98
11
-264.93
21
-123.63
31
140.36
0
LINE
8
CentreLine
10
-264.93
20
-123.63
30
140.36
11
-272.94
21
-120.08
31
137.43
0
LINE
8
CentreLine
10
-272.94
20
-120.08
30
137.43
11
-271.45
21
-111.53
31
152.19
0
LINE
8
CentreLine
10
-271.45
20
-111.53
30
152.19
11
-271.73
21
-109.03
31
162.40
0
LINE
8
CentreLine
10
-271.73
20
-109.03
30
162.40
11
-271.89
21
-107.43
31
163.20
0
LINE
8
CentreLine
10
-271.89
20
-107.43
30
163.20
11
-273.12
21
-106.09
31
164.56
0
LINE
8
CentreLine
10
-273.12
20
-106.09
30
164.56
11
-270.51
21
-104.47
31
166.36
0
LINE
8
CentreLine
10
-270.51
20
-104.47
30
166.36
11
-270.68
21
-101.52
31
171.12
0
LINE
8
CentreLine
10
-270.68
20
-101.52
30
171.12
11
-272.56
21
-97.84
31
173.08
0
LINE
8
CentreLine
10
-272.56
20
-97.84
30
173.08
11
-276.88
21
-96.69
31
172.64
0
LINE
8
CentreLine
10
-276.88
20
-96.69
30
172.64
11
-281.82
21
-98.39
31
170.34
0
LINE
8
CentreLine
10
-281.82
20
-98.39
30
170.34
11
-286.31
21
-95.49
31
172.12
0
LINE
8
CentreLine
10
-286.31
20
-95.49
30
172.12
11
-278.13
21
-72.49
31
196.10
0
LINE
8
CentreLine
10
-278.13
20
-72.49
30
196.10
11
-282.04
21
-73.10
31
196.19
0
LINE
8
CentreLine
10
-248.63
20
-107.71
30
196.12
11
-247.44
21
-107.67
31
197.66
0
LINE
8
CentreLine
10
-247.44
20
-107.67
30
197.66
11
-244.62
21
-105.05
31
199.86
0
LINE
8
CentreLine
10
-244.62
20
-105.05
30
199.86
11
-244.61
21
-105.06
31
212.98
0
LINE
8
CentreLine
10
-244.61
20
-105.06
30
212.98
11
-243.38
21
-104.18
31
215.57
0
LINE
8
CentreLine
10
-243.38
20
-104.18
30
215.57
11
-244.04
21
-102.98
31
218.50
0
LINE
8
CentreLine
10
-244.04
20
-102.98
30
218.50
11
-243.74
21
-101.79
31
218.75
0
LINE
8
CentreLine
10
-243.74
20
-101.79
30
218.75
11
-242.18
21
-101.68
31
218.91
0
LINE
8
CentreLine
10
-242.18
20
-101.68
30
218.91
11
-241.57
21
-101.37
31
218.90
0
LINE
8
CentreLine
10
-241.57
20
-101.37
30
218.90
11
-239.62
21
-100.46
31
219.24
0
LINE
8
CentreLine
10
-239.62
20
-100.46
30
219.24
11
-236.53
21
-98.06
31
219.22
0
LINE
8
CentreLine
10
-236.53
20
-98.06
30
219.22
11
-236.50
21
-98.07
31
232.40
0
LINE
8
CentreLine
10
-236.50
20
-98.07
30
232.40
11
-237.97
21
-95.73
31
233.24
0
LINE
8
CentreLine
10
-237.97
20
-95.73
30
233.24
11
-238.36
21
-93.27
31
233.41
0
LINE
8
CentreLine
10
-238.36
20
-93.27
30
233.41
11
-238.35
21
-93.28
31
236.99
0
LINE
8
CentreLine
10
-238.35
20
-93.28
30
236.99
11
-238.50
21
-90.41
31
238.56
0
LINE
8
CentreLine
10
-238.50
20
-90.41
30
238.56
11
-240.87
21
-88.11
31
237.80
0
LINE
8
CentreLine
10
-240.87
20
-88.11
30
237.80
11
-240.62
21
-84.78
31
236.94
0
LINE
8
CentreLine
10
-240.62
20
-84.78
30
236.94
11
-242.39
21
-84.13
31
235.47
0
LINE
8
CentreLine
10
-242.39
20
-84.13
30
235.47
11
-242.39
21
-84.14
31
242.60
0
LINE
8
CentreLine
10
-242.39
20
-84.14
30
242.60
11
-244.91
21
-83.22
31
242.25
0
LINE
8
CentreLine
10
-244.91
20
-83.22
30
242.25
11
-245.30
21
-81.41
31
241.46
0
LINE
8
CentreLine
10
-245.30
20
-81.41
30
241.46
11
-245.68
21
-79.22
31
242.40
0
LINE
8
CentreLine
10
-245.68
20
-79.22
30
242.40
11
-246.94
21
-77.94
31
242.71
0
LINE
8
CentreLine
10
-246.94
20
-77.94
30
242.71
11
-249.00
21
-74.67
31
242.22
0
LINE
8
CentreLine
10
-249.00
20
-74.67
30
242.22
11
-249.66
21
-73.25
31
242.19
0
LINE
8
CentreLine
10
-249.66
20
-73.25
30
242.19
11
-252.16
21
-69.91
31
242.91
0
LINE
8
CentreLine
10
-252.16
20
-69.91
30
242.91
11
-252.14
21
-69.92
31
253.84
0
LINE
8
CentreLine
10
-251.56
20
-99.47
30
205.62
11
-251.56
21
-99.25
31
195.05
0
LINE
8
CentreLine
10
-251.56
20
-99.25
30
195.05
11
-248.62
21
-107.85
31
187.25
0
LINE
8
CentreLine
10
-251.56
20
-99.47
30
205.62
11
-254.84
21
-93.99
31
205.05
0
LINE
8
CentreLine
10
-254.84
20
-93.99
30
205.05
11
-253.91
21
-92.56
31
205.04
0
LINE
8
CentreLine
10
-253.91
20
-92.56
30
205.04
11
-255.95
21
-90.35
31
205.03
0
LINE
8
CentreLine
10
-255.95
20
-90.35
30
205.03
11
-267.47
21
-76.53
31
204.27
0
LINE
8
CentreLine
10
-267.47
20
-76.53
30
204.27
11
-282.04
21
-73.10
31
196.19
0
LINE
8
CentreLine
10
-251.56
20
-99.47
30
205.62
11
-248.84
21
-104.21
31
205.72
0
LINE
8
CentreLine
10
-248.84
20
-104.21
30
205.72
11
-248.63
21
-107.71
31
196.12
0
LINE
8
CentreLine
10
-264.00
20
-125.80
30
138.98
11
-262.19
21
-130.07
31
136.30
0
LINE
8
CentreLine
10
-262.19
20
-130.07
30
136.30
11
-265.70
21
-133.13
31
134.78
0
LINE
8
CentreLine
10
-265.70
20
-133.13
30
134.78
11
-263.57
21
-137.14
31
113.43
0
LINE
8
CentreLine
10
-263.57
20
-137.14
30
113.43
11
-262.22
21
-139.23
31
113.65
0
LINE
8
CentreLine
10
-262.22
20
-139.23
30
113.65
11
-256.73
21
-142.27
31
110.72
0
LINE
8
CentreLine
10
-256.73
20
-142.27
30
110.72
11
-256.07
21
-143.28
31
110.49
0
LINE
8
CentreLine
10
-256.07
20
-143.28
30
110.49
11
-257.66
21
-145.45
31
107.28
0
LINE
8
CentreLine
10
-257.66
20
-145.45
30
107.28
11
-257.66
21
-153.20
31
 89.89
0
LINE
8
CentreLine
10
-257.66
20
-153.20
30
 89.89
11
-256.72
21
-158.03
31
 82.00
0
LINE
8
CentreLine
10
-256.72
20
-158.03
30
 82.00
11
-253.34
21
-166.84
31
 75.88
0
LINE
8
CentreLine
10
-253.34
20
-166.84
30
 75.88
11
-259.22
21
-175.25
31
 73.88
0
LINE
8
CentreLine
10
-259.22
20
-175.25
30
 73.88
11
-256.12
21
-178.82
31
 72.96
0
LINE
8
CentreLine
10
-256.12
20
-178.82
30
 72.96
11
-253.00
21
-173.63
31
 68.56
0
LINE
8
CentreLine
10
-253.00
20
-173.63
30
 68.56
11
-255.68
21
-177.32
31
 66.62
0
LINE
8
CentreLine
10
-255.68
20
-177.32
30
 66.62
11
-253.32
21
-179.08
31
 66.00
0
LINE
8
CentreLine
10
-253.32
20
-179.08
30
 66.00
11
-250.30
21
-178.27
31
 63.97
0
LINE
8
CentreLine
10
-250.30
20
-178.27
30
 63.97
11
-248.81
21
-180.45
31
 63.11
0
LINE
8
CentreLine
10
-248.81
20
-180.45
30
 63.11
11
-248.61
21
-184.58
31
 61.61
0
LINE
8
CentreLine
10
-248.61
20
-184.58
30
 61.61
11
-249.38
21
-187.30
31
 41.48
0
LINE
8
CentreLine
10
-249.38
20
-187.30
30
 41.48
11
-242.62
21
-196.61
31
 41.88
0
LINE
8
CentreLine
10
-242.62
20
-196.61
30
 41.88
11
-244.74
21
-201.86
31
 43.09
0
LINE
8
CentreLine
10
-244.74
20
-201.86
30
 43.09
11
-247.49
21
-197.63
31
 53.91
0
LINE
8
CentreLine
10
-247.49
20
-197.63
30
 53.91
11
-246.26
21
-195.25
31
 54.94
0
LINE
8
CentreLine
10
-246.26
20
-195.25
30
 54.94
11
-238.73
21
-208.85
31
 51.62
0
LINE
8
CentreLine
10
-238.73
20
-208.85
30
 51.62
11
-237.05
21
-210.31
31
 48.68
0
LINE
8
CentreLine
10
-237.05
20
-210.31
30
 48.68
11
-237.64
21
-214.08
31
 49.99
0
LINE
8
CentreLine
10
-237.64
20
-214.08
30
 49.99
11
-234.81
21
-216.92
31
 51.37
0
LINE
8
CentreLine
10
-234.81
20
-216.92
30
 51.37
11
-232.24
21
-224.40
31
 50.68
0
LINE
8
CentreLine
10
-232.24
20
-224.40
30
 50.68
11
-237.18
21
-225.82
31
 53.76
0
LINE
8
CentreLine
10
-237.18
20
-225.82
30
 53.76
11
-242.61
21
-224.26
31
 53.76
0
LINE
8
CentreLine
10
-242.61
20
-224.26
30
 53.76
11
-242.50
21
-227.30
31
 54.04
0
LINE
8
CentreLine
10
-242.50
20
-227.30
30
 54.04
11
-245.82
21
-229.30
31
 54.79
0
LINE
8
CentreLine
10
-245.82
20
-229.30
30
 54.79
11
-243.62
21
-230.52
31
 55.75
0
LINE
8
CentreLine
10
-243.62
20
-230.52
30
 55.75
11
-243.62
21
-230.52
31
 52.73
0
LINE
8
CentreLine
10
-243.62
20
-230.52
30
 52.73
11
-243.76
21
-232.74
31
 52.18
0
LINE
8
CentreLine
10
-243.76
20
-232.74
30
 52.18
11
-243.76
21
-232.74
31
 49.44
0
LINE
8
CentreLine
10
-243.76
20
-232.74
30
 49.44
11
-243.56
21
-226.72
31
 49.97
0
LINE
8
CentreLine
10
-243.56
20
-226.72
30
 49.97
11
-245.88
21
-226.76
31
 48.93
0
LINE
8
CentreLine
10
-245.88
20
-226.76
30
 48.93
11
-246.80
21
-229.12
31
 48.30
0
LINE
8
CentreLine
10
-246.80
20
-229.12
30
 48.30
11
-246.80
21
-229.12
31
 43.69
0
LINE
8
CentreLine
10
-246.80
20
-229.12
30
 43.69
11
-251.00
21
-226.79
31
 42.41
0
LINE
8
CentreLine
10
-251.00
20
-226.79
30
 42.41
11
-254.68
21
-226.21
31
 47.00
0
LINE
8
CentreLine
10
-254.68
20
-226.21
30
 47.00
11
-255.06
21
-229.27
31
 47.11
0
LINE
8
CentreLine
10
-255.06
20
-229.27
30
 47.11
11
-257.28
21
-236.54
31
 44.04
0
LINE
8
CentreLine
10
-257.28
20
-236.54
30
 44.04
11
-256.94
21
-240.30
31
 42.19
0
LINE
8
CentreLine
10
-256.94
20
-240.30
30
 42.19
11
-258.72
21
-242.83
31
 43.31
0
LINE
8
CentreLine
10
-258.72
20
-242.83
30
 43.31
11
-262.93
21
-249.83
31
 44.04
0
LINE
8
CentreLine
10
-262.93
20
-249.83
30
 44.04
11
-263.79
21
-253.89
31
 44.04
0
LINE
8
CentreLine
10
-263.79
20
-253.89
30
 44.04
11
-264.31
21
-256.60
31
 41.56
0
LINE
8
CentreLine
10
-264.31
20
-256.60
30
 41.56
11
-263.45
21
-255.11
31
 39.89
0
LINE
8
CentreLine
10
-263.45
20
-255.11
30
 39.89
11
-263.79
21
-261.53
31
 37.30
0
LINE
8
CentreLine
10
-263.79
20
-261.53
30
 37.30
11
-263.88
21
-264.06
31
 34.94
0
LINE
8
CentreLine
10
-263.88
20
-264.06
30
 34.94
11
-260.03
21
-271.00
31
 31.88
0
LINE
8
CentreLine
10
-260.03
20
-271.00
30
 31.88
11
-264.20
21
-280.85
31
 31.88
0
LINE
8
CentreLine
10
-264.20
20
-280.85
30
 31.88
11
-263.16
21
-283.74
31
 29.49
0
LINE
8
CentreLine
10
-263.16
20
-283.74
30
 29.49
11
-258.80
21
-288.10
31
 22.13
0
LINE
8
CentreLine
10
-258.80
20
-288.10
30
 22.13
11
-255.80
21
-291.10
31
 19.88
0
LINE
8
CentreLine
10
-255.80
20
-291.10
30
 19.88
11
-255.97
21
-295.89
31
 18.13
0
LINE
8
CentreLine
10
-255.97
20
-295.89
30
 18.13
11
-255.41
21
-306.68
31
 18.13
0
LINE
8
CentreLine
10
-255.41
20
-306.68
30
 18.13
11
-258.26
21
-312.07
31
 15.91
0
LINE
8
CentreLine
10
-258.26
20
-312.07
30
 15.91
11
-254.73
21
-313.02
31
 11.55
0
LINE
8
CentreLine
10
-254.73
20
-313.02
30
 11.55
11
-251.04
21
-318.30
31
  8.81
0
LINE
8
CentreLine
10
-251.04
20
-318.30
30
  8.81
11
-257.59
21
-320.68
31
 -6.14
0
LINE
8
CentreLine
10
-257.59
20
-320.68
30
 -6.14
11
-248.31
21
-336.76
31
 -3.20
0
LINE
8
CentreLine
10
-248.31
20
-336.76
30
 -3.20
11
-242.36
21
-346.28
31
 -7.74
0
LINE
8
CentreLine
10
-242.36
20
-346.28
30
 -7.74
11
-242.99
21
-352.24
31
 -7.74
0
LINE
8
CentreLine
10
-242.99
20
-352.24
30
 -7.74
11
-245.04
21
-355.79
31
 -7.74
0
LINE
8
CentreLine
10
-245.04
20
-355.79
30
 -7.74
11
-245.25
21
-359.89
31
 -7.74
0
LINE
8
CentreLine
10
-245.25
20
-359.89
30
 -7.74
11
-247.69
21
-361.94
31
 -9.16
0
LINE
8
CentreLine
10
-247.69
20
-361.94
30
 -9.16
11
-247.69
21
-371.72
31
-12.71
0
LINE
8
CentreLine
10
-247.69
20
-371.72
30
-12.71
11
-241.47
21
-382.52
31
 -9.83
0
LINE
8
CentreLine
10
-241.47
20
-382.52
30
 -9.83
11
-234.29
21
-388.54
31
-12.34
0
LINE
8
CentreLine
10
-234.29
20
-388.54
30
-12.34
11
-226.01
21
-379.67
31
 -9.77
0
LINE
8
CentreLine
10
-226.01
20
-379.67
30
 -9.77
11
-219.04
21
-376.41
31
 -9.77
0
LINE
8
CentreLine
10
-219.04
20
-376.41
30
 -9.77
11
-221.17
21
-369.44
31
 -9.51
0
LINE
8
CentreLine
10
-221.17
20
-369.44
30
 -9.51
11
-228.25
21
-362.82
31
-10.53
0
LINE
8
CentreLine
10
-228.25
20
-362.82
30
-10.53
11
-221.69
21
-349.37
31
 -7.89
0
LINE
8
CentreLine
10
-221.69
20
-349.37
30
 -7.89
11
-218.64
21
-341.81
31
 -9.93
0
LINE
8
CentreLine
10
-218.64
20
-341.81
30
 -9.93
11
-218.69
21
-340.62
31
-10.07
0
LINE
8
CentreLine
10
-218.69
20
-340.62
30
-10.07
11
-214.31
21
-335.21
31
 -5.19
0
LINE
8
CentreLine
10
-214.31
20
-335.21
30
 -5.19
11
-217.56
21
-327.15
31
 -2.87
0
LINE
8
CentreLine
10
-217.56
20
-327.15
30
 -2.87
11
-223.25
21
-319.86
31
 -1.89
0
LINE
8
CentreLine
10
-223.25
20
-319.86
30
 -1.89
11
-225.69
21
-320.79
31
 -1.94
0
LINE
8
CentreLine
10
-225.69
20
-320.79
30
 -1.94
11
-228.67
21
-310.37
31
  0.66
0
LINE
8
CentreLine
10
-228.67
20
-310.37
30
  0.66
11
-220.86
21
-303.34
31
  7.24
0
LINE
8
CentreLine
10
-220.86
20
-303.34
30
  7.24
11
-220.22
21
-300.55
31
 11.81
0
LINE
8
CentreLine
10
-220.22
20
-300.55
30
 11.81
11
-220.41
21
-294.96
31
 12.89
0
LINE
8
CentreLine
10
-220.41
20
-294.96
30
 12.89
11
-214.37
21
-291.74
31
 14.61
0
LINE
8
CentreLine
10
-214.37
20
-291.74
30
 14.61
11
-215.50
21
-283.68
31
 19.31
0
LINE
8
CentreLine
10
-215.50
20
-283.68
30
 19.31
11
-214.67
21
-276.87
31
 20.39
0
LINE
8
CentreLine
10
-214.67
20
-276.87
30
 20.39
11
-210.25
21
-268.22
31
 22.81
0
LINE
8
CentreLine
10
-210.25
20
-268.22
30
 22.81
11
-208.35
21
-267.19
31
 23.16
0
LINE
8
CentreLine
10
-208.35
20
-267.19
30
 23.16
11
-209.06
21
-261.35
31
 23.56
0
LINE
8
CentreLine
10
-209.06
20
-261.35
30
 23.56
11
-206.09
21
-261.19
31
 23.82
0
LINE
8
CentreLine
10
-206.09
20
-261.19
30
 23.82
11
-209.18
21
-252.21
31
 23.82
0
LINE
8
CentreLine
10
-209.18
20
-252.21
30
 23.82
11
-212.04
21
-251.08
31
 25.00
0
LINE
8
CentreLine
10
-212.04
20
-251.08
30
 25.00
11
-215.35
21
-247.53
31
 25.00
0
LINE
8
CentreLine
10
-215.35
20
-247.53
30
 25.00
11
-215.49
21
-245.95
31
 26.54
0
LINE
8
CentreLine
10
-244.74
20
-201.86
30
 43.09
11
-240.67
21
-204.31
31
 40.97
0
LINE
8
CentreLine
10
-240.67
20
-204.31
30
 40.97
11
-241.62
21
-210.72
31
 34.03
0
LINE
8
CentreLine
10
-241.62
20
-210.72
30
 34.03
11
-242.25
21
-213.98
31
 28.91
0
LINE
8
CentreLine
10
-242.25
20
-213.98
30
 28.91
11
-239.00
21
-217.13
31
 24.53
0
LINE
8
CentreLine
10
-239.00
20
-217.13
30
 24.53
11
-234.56
21
-214.57
31
 27.03
0
LINE
8
CentreLine
10
-234.56
20
-214.57
30
 27.03
11
-231.38
21
-211.27
31
 26.70
0
LINE
8
CentreLine
10
-231.38
20
-211.27
30
 26.70
11
-231.20
21
-214.49
31
 24.19
0
LINE
8
CentreLine
10
-231.20
20
-214.49
30
 24.19
11
-229.18
21
-223.30
31
 21.25
0
LINE
8
CentreLine
10
-229.18
20
-223.30
30
 21.25
11
-224.94
21
-227.75
31
 20.38
0
LINE
8
CentreLine
10
-237.05
20
-210.31
30
 48.68
11
-236.88
21
-215.30
31
 45.18
0
LINE
8
CentreLine
10
-236.88
20
-215.30
30
 45.18
11
-235.75
21
-212.67
31
 44.68
0
LINE
8
CentreLine
10
-235.75
20
-212.67
30
 44.68
11
-234.70
21
-210.08
31
 45.43
0
LINE
8
CentreLine
10
-234.70
20
-210.08
30
 45.43
11
-234.38
21
-207.96
31
 45.92
0
LINE
8
CentreLine
10
-234.38
20
-207.96
30
 45.92
11
-231.30
21
-206.78
31
 45.86
0
LINE
8
CentreLine
10
-234.38
20
-207.96
30
 45.92
11
-235.43
21
-208.40
31
 43.47
0
LINE
8
CentreLine
10
-235.43
20
-208.40
30
 43.47
11
-235.07
21
-209.62
31
 42.49
0
LINE
8
CentreLine
10
-235.07
20
-209.62
30
 42.49
11
-230.31
21
-208.69
31
 41.88
0
LINE
8
CentreLine
10
-239.00
20
-217.13
30
 24.53
11
-233.23
21
-213.93
31
 27.88
0
LINE
8
CentreLine
10
-233.23
20
-213.93
30
 27.88
11
-230.38
21
-213.12
31
 27.42
0
LINE
8
CentreLine
10
-230.38
20
-213.12
30
 27.42
11
-230.47
21
-217.70
31
 24.76
0
LINE
8
CentreLine
10
-230.47
20
-217.70
30
 24.76
11
-228.50
21
-224.54
31
 22.73
0
LINE
8
CentreLine
10
-228.50
20
-224.54
30
 22.73
11
-224.19
21
-229.59
31
 22.38
0
LINE
8
CentreLine
10
-224.19
20
-229.59
30
 22.38
11
-220.25
21
-233.27
31
 21.62
0
LINE
8
CentreLine
10
-220.25
20
-233.27
30
 21.62
11
-214.12
21
-234.91
31
 23.62
0
LINE
8
CentreLine
10
-214.12
20
-234.91
30
 23.62
11
-213.67
21
-240.09
31
 21.99
0
LINE
8
CentreLine
10
-213.67
20
-240.09
30
 21.99
11
-209.99
21
-244.18
31
 22.07
0
LINE
8
CentreLine
10
-209.99
20
-244.18
30
 22.07
11
-206.32
21
-247.24
31
 23.41
0
LINE
8
CentreLine
10
-206.32
20
-247.24
30
 23.41
11
-201.92
21
-249.49
31
 23.41
0
LINE
8
CentreLine
10
-201.92
20
-249.49
30
 23.41
11
-204.92
21
-247.32
31
 23.41
0
LINE
8
CentreLine
10
-204.92
20
-247.32
30
 23.41
11
-202.67
21
-244.44
31
 23.41
0
LINE
8
CentreLine
10
-202.67
20
-244.44
30
 23.41
11
-194.92
21
-249.28
31
 19.34
0
LINE
8
CentreLine
10
-194.92
20
-249.28
30
 19.34
11
-190.99
21
-246.21
31
 19.60
0
LINE
8
CentreLine
10
-190.99
20
-246.21
30
 19.60
11
-185.32
21
-247.41
31
 20.00
0
LINE
8
CentreLine
10
-185.32
20
-247.41
30
 20.00
11
-181.85
21
-253.68
31
 17.81
0
LINE
8
CentreLine
10
-181.85
20
-253.68
30
 17.81
11
-177.45
21
-258.39
31
 17.48
0
LINE
8
CentreLine
10
-177.45
20
-258.39
30
 17.48
11
-173.50
21
-257.19
31
 13.48
0
LINE
8
CentreLine
10
-173.50
20
-257.19
30
 13.48
11
-173.50
21
-257.19
31
  7.98
0
LINE
8
CentreLine
10
-173.50
20
-257.19
30
  7.98
11
-176.57
21
-267.26
31
  7.43
0
LINE
8
CentreLine
10
-176.57
20
-267.26
30
  7.43
11
-176.57
21
-268.87
31
  3.44
0
LINE
8
CentreLine
10
-176.57
20
-268.87
30
  3.44
11
-176.57
21
-268.87
31
-17.87
0
LINE
8
CentreLine
10
-176.57
20
-268.87
30
-17.87
11
-181.00
21
-268.09
31
-17.87
0
LINE
8
CentreLine
10
-181.00
20
-268.09
30
-17.87
11
-184.10
21
-270.59
31
-20.64
0
LINE
8
CentreLine
10
-184.10
20
-270.59
30
-20.64
11
-189.10
21
-281.83
31
-20.64
0
LINE
8
CentreLine
10
-189.10
20
-281.83
30
-20.64
11
-201.44
21
-284.45
31
-19.88
0
LINE
8
CentreLine
10
-201.44
20
-284.45
30
-19.88
11
-212.56
21
-285.23
31
-21.05
0
LINE
8
CentreLine
10
-212.56
20
-285.23
30
-21.05
11
-227.44
21
-292.81
31
-21.62
0
LINE
8
CentreLine
10
-227.44
20
-292.81
30
-21.62
11
-230.82
21
-306.43
31
-21.25
0
LINE
8
CentreLine
10
-230.82
20
-306.43
30
-21.25
11
-236.04
21
-311.46
31
-24.56
0
LINE
8
CentreLine
10
-236.04
20
-311.46
30
-24.56
11
-244.13
21
-313.94
31
-22.59
0
LINE
8
CentreLine
10
-244.13
20
-313.94
30
-22.59
11
-245.20
21
-318.96
31
-25.81
0
LINE
8
CentreLine
10
-245.20
20
-318.96
30
-25.81
11
-249.62
21
-325.75
31
-26.08
0
LINE
8
CentreLine
10
-249.62
20
-325.75
30
-26.08
11
-247.98
21
-329.80
31
-28.62
0
LINE
8
CentreLine
10
-247.98
20
-329.80
30
-28.62
11
-250.66
21
-332.57
31
-29.22
0
LINE
8
CentreLine
10
-250.66
20
-332.57
30
-29.22
11
-252.29
21
-336.41
31
-32.25
0
LINE
8
CentreLine
10
-252.29
20
-336.41
30
-32.25
11
-252.63
21
-337.96
31
-33.53
0
LINE
8
CentreLine
10
-252.63
20
-337.96
30
-33.53
11
-252.63
21
-337.96
31
-61.13
0
LINE
8
CentreLine
10
-252.29
20
-336.41
30
-32.25
11
-249.05
21
-330.80
31
-27.71
0
LINE
8
CentreLine
10
-249.05
20
-330.80
30
-27.71
11
-253.36
21
-336.96
31
-24.99
0
LINE
8
CentreLine
10
-253.36
20
-336.96
30
-24.99
11
-258.31
21
-340.83
31
-23.30
0
LINE
8
CentreLine
10
-258.31
20
-340.83
30
-23.30
11
-260.60
21
-344.79
31
-23.69
0
LINE
8
CentreLine
10
-260.60
20
-344.79
30
-23.69
11
-265.66
21
-340.55
31
-23.69
0
LINE
8
CentreLine
10
-265.66
20
-340.55
30
-23.69
11
-276.20
21
-336.71
31
-25.68
0
LINE
8
CentreLine
10
-276.20
20
-336.71
30
-25.68
11
-280.24
21
-340.74
31
-27.20
0
LINE
8
CentreLine
10
-280.24
20
-340.74
30
-27.20
11
-270.67
21
-367.02
31
-28.68
0
LINE
8
CentreLine
10
-270.67
20
-367.02
30
-28.68
11
-271.94
21
-368.16
31
-33.37
0
LINE
8
CentreLine
10
-271.94
20
-368.16
30
-33.37
11
-280.56
21
-375.92
31
-36.47
0
LINE
8
CentreLine
10
-280.56
20
-375.92
30
-36.47
11
-281.13
21
-379.25
31
-37.38
0
LINE
8
CentreLine
10
-281.13
20
-379.25
30
-37.38
11
-278.25
21
-387.19
31
-40.45
0
LINE
8
CentreLine
10
-278.25
20
-387.19
30
-40.45
11
-276.35
21
-390.49
31
-33.88
0
LINE
8
CentreLine
10
-234.29
20
-388.54
30
-12.34
11
-236.94
21
-391.83
31
-13.88
0
LINE
8
CentreLine
10
-236.94
20
-391.83
30
-13.88
11
-244.74
21
-399.35
31
-15.80
0
LINE
8
CentreLine
10
-244.74
20
-399.35
30
-15.80
11
-250.28
21
-404.70
31
-19.39
0
LINE
8
CentreLine
10
-250.28
20
-404.70
30
-19.39
11
-250.28
21
-404.70
31
-26.19
0
LINE
8
CentreLine
10
-250.28
20
-404.70
30
-26.19
11
-255.18
21
-409.77
31
-24.69
0
LINE
8
CentreLine
10
-255.18
20
-409.77
30
-24.69
11
-259.16
21
-413.12
31
-24.69
0
LINE
8
CentreLine
10
-259.16
20
-413.12
30
-24.69
11
-265.06
21
-419.43
31
-27.84
0
LINE
8
CentreLine
10
-265.06
20
-419.43
30
-27.84
11
-266.13
21
-421.99
31
-31.13
0
LINE
8
CentreLine
10
-266.13
20
-421.99
30
-31.13
11
-268.43
21
-426.49
31
-35.38
0
LINE
8
CentreLine
10
-268.43
20
-426.49
30
-35.38
11
-274.03
21
-431.01
31
-35.38
0
LINE
8
CentreLine
10
-274.03
20
-431.01
30
-35.38
11
-280.61
21
-436.54
31
-35.38
0
LINE
8
CentreLine
10
-280.61
20
-436.54
30
-35.38
11
-287.10
21
-441.62
31
-45.19
0
LINE
8
CentreLine
10
-287.10
20
-441.62
30
-45.19
11
-287.10
21
-441.62
31
-86.69
0
LINE
8
CentreLine
10
-287.10
20
-441.62
30
-86.69
11
-298.59
21
-451.25
31
-86.69
0
LINE
8
CentreLine
10
-298.59
20
-451.25
30
-86.69
11
-304.78
21
-453.51
31
-85.51
0
LINE
8
CentreLine
10
-304.78
20
-453.51
30
-85.51
11
-308.00
21
-452.52
31
-88.05
0
LINE
8
CentreLine
10
-308.00
20
-452.52
30
-88.05
11
-311.53
21
-456.75
31
-92.68
0
LINE
8
CentreLine
10
-311.53
20
-456.75
30
-92.68
11
-313.47
21
-454.00
31
-94.45
0
LINE
8
CentreLine
10
-313.47
20
-454.00
30
-94.45
11
-314.60
21
-466.90
31
-95.59
0
LINE
8
CentreLine
10
-314.60
20
-466.90
30
-95.59
11
-311.23
21
-471.22
31
-98.50
0
LINE
8
CentreLine
10
-311.23
20
-471.22
30
-98.50
11
-315.60
21
-476.43
31
-98.50
0
LINE
8
CentreLine
10
-315.60
20
-476.43
30
-98.50
11
-320.81
21
-477.82
31
-98.50
0
LINE
8
CentreLine
10
-320.81
20
-477.82
30
-98.50
11
-320.81
21
-477.82
31
-120.50
0
LINE
8
CentreLine
10
-320.81
20
-477.82
30
-120.50
11
-314.84
21
-481.27
31
-126.28
0
LINE
8
CentreLine
10
-314.84
20
-481.27
30
-126.28
11
-314.84
21
-481.27
31
-145.08
0
LINE
8
CentreLine
10
-314.84
20
-481.27
30
-145.08
11
-318.11
21
-493.46
31
-163.11
0
LINE
8
CentreLine
10
-318.11
20
-493.46
30
-163.11
11
-320.60
21
-497.02
31
-166.14
0
LINE
8
CentreLine
10
-320.60
20
-497.02
30
-166.14
11
-331.00
21
-495.18
31
-167.07
0
LINE
8
CentreLine
10
-331.00
20
-495.18
30
-167.07
11
-334.82
21
-500.64
31
-185.39
0
LINE
8
CentreLine
10
-334.82
20
-500.64
30
-185.39
11
-338.60
21
-502.50
31
-185.39
0
LINE
8
CentreLine
10
-338.60
20
-502.50
30
-185.39
11
-351.13
21
-505.85
31
-200.88
0
LINE
8
CentreLine
10
-351.13
20
-505.85
30
-200.88
11
-351.13
21
-505.85
31
-224.88
0
LINE
8
CentreLine
10
-351.13
20
-505.85
30
-224.88
11
-345.95
21
-509.76
31
-236.12
0
LINE
8
CentreLine
10
-345.95
20
-509.76
30
-236.12
11
-345.95
21
-509.76
31
-248.73
0
LINE
8
CentreLine
10
-345.95
20
-509.76
30
-248.73
11
-345.95
21
-516.34
31
-251.65
0
LINE
8
CentreLine
10
-345.95
20
-516.34
30
-251.65
11
-344.31
21
-521.39
31
-253.09
0
LINE
8
CentreLine
10
-344.31
20
-521.39
30
-253.09
11
-344.58
21
-529.09
31
-261.35
0
LINE
8
CentreLine
10
-344.58
20
-529.09
30
-261.35
11
-344.96
21
-534.64
31
-263.60
0
LINE
8
CentreLine
10
-344.96
20
-534.64
30
-263.60
11
-347.09
21
-542.05
31
-271.30
0
LINE
8
CentreLine
10
-347.09
20
-542.05
30
-271.30
11
-347.09
21
-542.05
31
-292.00
0
LINE
8
CentreLine
10
-347.09
20
-542.05
30
-292.00
11
-351.47
21
-544.79
31
-294.40
0
LINE
8
CentreLine
10
-351.47
20
-544.79
30
-294.40
11
-357.14
21
-542.94
31
-294.93
0
LINE
8
CentreLine
10
-357.14
20
-542.94
30
-294.93
11
-360.36
21
-543.62
31
-295.34
0
LINE
8
CentreLine
10
-360.36
20
-543.62
30
-295.34
11
-365.08
21
-537.79
31
-295.34
0
LINE
8
CentreLine
10
-365.08
20
-537.79
30
-295.34
11
-371.39
21
-533.84
31
-304.23
0
LINE
8
CentreLine
10
-371.39
20
-533.84
30
-304.23
11
-371.39
21
-533.84
31
-318.23
0
LINE
8
CentreLine
10
-371.39
20
-533.84
30
-318.23
11
-372.02
21
-527.88
31
-318.23
0
LINE
8
CentreLine
10
-372.02
20
-527.88
30
-318.23
11
-375.21
21
-525.96
31
-319.01
0
LINE
8
CentreLine
10
-375.21
20
-525.96
30
-319.01
11
-375.21
21
-525.96
31
-347.12
0
LINE
8
CentreLine
10
-375.21
20
-525.96
30
-319.01
11
-385.08
21
-529.95
31
-361.71
0
LINE
8
CentreLine
10
-385.08
20
-529.95
30
-361.71
11
-383.59
21
-519.33
31
-370.71
0
LINE
8
CentreLine
10
-383.59
20
-519.33
30
-370.71
11
-382.87
21
-517.12
31
-371.88
0
LINE
8
CentreLine
10
-382.87
20
-517.12
30
-371.88
11
-380.95
21
-517.02
31
-374.43
0
LINE
8
CentreLine
10
-380.95
20
-517.02
30
-374.43
11
-377.88
21
-515.85
31
-376.74
0
LINE
8
CentreLine
10
-377.88
20
-515.85
30
-376.74
11
-376.02
21
-511.25
31
-377.35
0
LINE
8
CentreLine
10
-376.02
20
-511.25
30
-377.35
11
-374.07
21
-508.00
31
-380.88
0
LINE
8
CentreLine
10
-374.07
20
-508.00
30
-380.88
11
-374.07
21
-508.00
31
-391.28
0
LINE
8
CentreLine
10
-176.57
20
-268.87
30
-17.87
11
-174.67
21
-265.81
31
-13.99
0
LINE
8
CentreLine
10
-174.67
20
-265.81
30
-13.99
11
-167.78
21
-262.60
31
-13.72
0
LINE
8
CentreLine
10
-167.78
20
-262.60
30
-13.72
11
-171.81
21
-257.23
31
-14.78
0
LINE
8
CentreLine
10
-171.81
20
-257.23
30
-14.78
11
-167.03
21
-253.21
31
-13.45
0
LINE
8
CentreLine
10
-167.03
20
-253.21
30
-13.45
11
-164.39
21
-252.25
31
-15.20
0
LINE
8
CentreLine
10
-164.39
20
-252.25
30
-15.20
11
-165.04
21
-249.24
31
-18.62
0
LINE
8
CentreLine
10
-165.04
20
-249.24
30
-18.62
11
-164.19
21
-239.50
31
-15.06
0
LINE
8
CentreLine
10
-164.19
20
-239.50
30
-15.06
11
-175.06
21
-234.19
31
-17.20
0
LINE
8
CentreLine
10
-175.06
20
-234.19
30
-17.20
11
-180.07
21
-229.36
31
-12.50
0
LINE
8
CentreLine
10
-180.07
20
-229.36
30
-12.50
11
-193.01
21
-225.40
31
-10.36
0
LINE
8
CentreLine
10
-193.01
20
-225.40
30
-10.36
11
-196.25
21
-218.49
31
-12.40
0
LINE
8
CentreLine
10
-196.25
20
-218.49
30
-12.40
11
-191.64
21
-198.57
31
 -3.74
0
LINE
8
CentreLine
10
-191.64
20
-198.57
30
 -3.74
11
-186.00
21
-190.52
31
 -0.34
0
LINE
8
CentreLine
10
-186.00
20
-190.52
30
 -0.34
11
-186.36
21
-180.47
31
  5.24
0
LINE
8
CentreLine
10
-186.36
20
-180.47
30
  5.24
11
-196.01
21
-179.28
31
  4.04
0
LINE
8
CentreLine
10
-196.01
20
-179.28
30
  4.04
11
-196.17
21
-170.72
31
  5.86
0
LINE
8
CentreLine
10
-196.17
20
-170.72
30
  5.86
11
-200.49
21
-161.00
31
  4.74
0
LINE
8
CentreLine
10
-200.49
20
-161.00
30
  4.74
11
-210.81
21
-154.04
31
 -1.88
0
LINE
8
CentreLine
10
-210.81
20
-154.04
30
 -1.88
11
-219.81
21
-147.01
31
 -3.89
0
LINE
8
CentreLine
10
-219.81
20
-147.01
30
 -3.89
11
-219.81
21
-147.01
31
  0.91
0
LINE
8
CentreLine
10
-219.81
20
-147.01
30
  0.91
11
-222.85
21
-142.68
31
  1.28
0
LINE
8
CentreLine
10
-222.85
20
-142.68
30
  1.28
11
-226.12
21
-141.61
31
 -0.33
0
LINE
8
CentreLine
10
-226.12
20
-141.61
30
 -0.33
11
-232.01
21
-134.58
31
  2.12
0
LINE
8
CentreLine
10
-232.01
20
-134.58
30
  2.12
11
-238.01
21
-128.99
31
  8.53
0
LINE
8
CentreLine
10
-238.01
20
-128.99
30
  8.53
11
-245.00
21
-126.86
31
  6.85
0
LINE
8
CentreLine
10
-245.00
20
-126.86
30
  6.85
11
-250.84
21
-120.15
31
  9.23
0
LINE
8
CentreLine
10
-250.84
20
-120.15
30
  9.23
11
-250.29
21
-117.58
31
 14.17
0
LINE
8
CentreLine
10
-250.29
20
-117.58
30
 14.17
11
-251.86
21
-114.49
31
 14.66
0
LINE
8
CentreLine
10
-251.86
20
-114.49
30
 14.66
11
-253.69
21
-112.67
31
 15.75
0
LINE
8
CentreLine
10
-253.69
20
-112.67
30
 15.75
11
-256.50
21
-113.11
31
 15.25
0
LINE
8
CentreLine
10
-256.50
20
-113.11
30
 15.25
11
-259.45
21
-112.59
31
 18.47
0
LINE
8
CentreLine
10
-259.45
20
-112.59
30
 18.47
11
-256.69
21
-109.92
31
 21.81
0
LINE
8
CentreLine
10
-256.69
20
-109.92
30
 21.81
11
-254.53
21
-106.83
31
 22.81
0
LINE
8
CentreLine
10
-254.53
20
-106.83
30
 22.81
11
-262.50
21
-101.04
31
 27.00
0
LINE
8
CentreLine
10
-262.50
20
-101.04
30
 27.00
11
-268.85
21
-98.98
31
 29.43
0
LINE
8
CentreLine
10
-268.85
20
-98.98
30
 29.43
11
-270.24
21
-95.70
31
 31.25
0
LINE
8
CentreLine
10
-270.24
20
-95.70
30
 31.25
11
-270.35
21
-93.63
31
 26.81
0
LINE
8
CentreLine
10
-270.35
20
-93.63
30
 26.81
11
-274.38
21
-85.36
31
 28.10
0
LINE
8
CentreLine
10
-274.38
20
-85.36
30
 28.10
11
-272.98
21
-81.89
31
 28.75
0
LINE
8
CentreLine
10
-272.98
20
-81.89
30
 28.75
11
-274.16
21
-78.65
31
 30.37
0
LINE
8
CentreLine
10
-274.16
20
-78.65
30
 30.37
11
-273.25
21
-74.01
31
 32.00
0
LINE
8
CentreLine
10
-273.25
20
-74.01
30
 32.00
11
-275.61
21
-74.34
31
 32.32
0
LINE
8
CentreLine
10
-275.61
20
-74.34
30
 32.32
11
-275.94
21
-70.57
31
 31.03
0
LINE
8
CentreLine
10
-275.94
20
-70.57
30
 31.03
11
-279.03
21
-70.52
31
 31.86
0
LINE
8
CentreLine
10
-279.03
20
-70.52
30
 31.86
11
-279.94
21
-64.72
31
 32.47
0
LINE
8
CentreLine
10
-279.94
20
-64.72
30
 32.47
11
-276.87
21
-61.75
31
 34.85
0
LINE
8
CentreLine
10
-276.87
20
-61.75
30
 34.85
11
-272.76
21
-49.86
31
 39.18
0
LINE
8
CentreLine
10
-272.76
20
-49.86
30
 39.18
11
-273.19
21
-43.82
31
 40.91
0
LINE
8
CentreLine
10
-273.19
20
-43.82
30
 40.91
11
-268.75
21
-35.09
31
 44.10
0
LINE
8
CentreLine
10
-268.75
20
-35.09
30
 44.10
11
-269.31
21
-31.90
31
 49.26
0
LINE
8
CentreLine
10
-269.31
20
-31.90
30
 49.26
11
-271.81
21
-28.32
31
 49.73
0
LINE
8
CentreLine
10
-271.81
20
-28.32
30
 49.73
11
-271.81
21
-28.32
31
 55.93
0
LINE
8
CentreLine
10
-271.81
20
-28.32
30
 55.93
11
-271.81
21
-26.06
31
 62.12
0
LINE
8
CentreLine
10
-271.81
20
-26.06
30
 62.12
11
-280.55
21
 -9.63
31
 68.90
0
LINE
8
CentreLine
10
-280.55
20
 -9.63
30
 68.90
11
-267.44
21
 -1.76
31
 80.84
0
LINE
8
CentreLine
10
-267.44
20
 -1.76
30
 80.84
11
-258.47
21
 12.07
31
 84.96
0
LINE
8
CentreLine
10
-258.47
20
 12.07
30
 84.96
11
-278.44
21
 21.81
31
104.97
0
LINE
8
CentreLine
10
-320.81
20
-477.82
30
-98.50
11
-330.38
21
-485.87
31
-98.50
0
LINE
8
CentreLine
10
-330.38
20
-485.87
30
-98.50
11
-331.56
21
-489.68
31
-98.50
0
LINE
8
CentreLine
10
-331.56
20
-489.68
30
-98.50
11
-331.56
21
-489.68
31
-111.00
0
LINE
8
CentreLine
10
-236.50
20
-98.07
30
232.40
11
-236.50
21
-98.07
31
202.40
0
LINE
8
CentreLine
10
-236.50
20
-98.07
30
202.40
11
-237.72
21
-100.25
31
198.06
0
LINE
8
CentreLine
10
-237.72
20
-100.25
30
198.06
11
-238.41
21
-101.35
31
198.06
0
LINE
8
CentreLine
10
-238.41
20
-101.35
30
198.06
11
-238.41
21
-101.35
31
190.71
0
LINE
8
CentreLine
10
-238.41
20
-101.35
30
190.71
11
-242.78
21
-105.02
31
190.91
0
LINE
8
CentreLine
10
-242.78
20
-105.02
30
190.91
11
-242.78
21
-105.02
31
187.81
0
LINE
8
CentreLine
10
-242.78
20
-105.02
30
187.81
11
-239.76
21
-105.55
31
187.81
0
LINE
8
CentreLine
10
-239.76
20
-105.55
30
187.81
11
-239.76
21
-105.55
31
171.75
0
LINE
8
CentreLine
10
-248.63
20
-107.71
30
196.12
11
-248.63
21
-107.71
31
175.19
0
LINE
8
CentreLine
10
-248.63
20
-107.71
30
175.19
11
-251.81
21
-114.84
31
167.11
0
LINE
8
CentreLine
10
-251.81
20
-114.84
30
167.11
11
-256.12
21
-117.32
31
164.00
0
LINE
8
CentreLine
10
-256.12
20
-117.32
30
164.00
11
-259.48
21
-121.05
31
160.36
000
ENDSEC
000
EOF
