0
SECTION
2
HEADER
9
$EXTMIN
10
-16.775000
20
-11.075000
30
-24.710000
9
$EXTMAX
10
16.775000
20
11.075000
30
24.710000
9
$PDMODE
70
3
9
$PDSIZE
40
  0.80
0
ENDSEC
0
SECTION
2
TABLES
0
TABLE
2
LTYPE
70
10
0
LTYPE
2
CONTINUOUS
70
64
3
Continuous
72
65
73
0
40
0.0
0
LTYPE
2
DASHED
70
64
3
Dashed
72
65
73
2
40
2.5
49
1.25
49
-1.25
0
ENDTAB
0
TABLE
2
LAYER
70
10
0
LAYER
2
CentreLine
70
64
62
5
6
CONTINUOUS
0
LAYER
2
Stations
70
64
62
7
6
CONTINUOUS
0
LAYER
2
Labels
70
64
62
7
6
CONTINUOUS
0
LAYER
2
Surface
70
64
62
5
6
DASHED
0
LAYER
2
SurfaceStations
70
64
62
7
6
CONTINUOUS
0
LAYER
2
SurfaceLabels
70
64
62
7
6
CONTINUOUS
0
ENDTAB
0
ENDSEC
0
SECTION
2
ENTITIES
0
LINE
8
CentreLine
10
 15.77
20
  2.03
30
 24.71
11
 14.32
21
  4.45
31
 24.51
0
LINE
8
CentreLine
10
 14.32
20
  4.45
30
 24.51
11
  3.12
21
 -1.25
31
 14.35
0
LINE
8
CentreLine
10
  3.12
20
 -1.25
30
 14.35
11
  2.50
21
 -6.45
31
  0.72
0
LINE
8
CentreLine
10
  2.50
20
 -6.45
30
  0.72
11
  8.54
21
 -6.03
31
 -3.53
0
LINE
8
CentreLine
10
  8.54
20
 -6.03
30
 -3.53
11
  6.80
21
 -7.58
31
 -3.61
0
LINE
8
CentreLine
10
  6.80
20
 -7.58
30
 -3.61
11
  3.88
21
-11.07
31
 -7.58
0
LINE
8
CentreLine
10
  3.88
20
-11.07
30
 -7.58
11
  3.88
21
-11.07
31
-17.60
0
LINE
8
CentreLine
10
  2.50
20
 -6.45
30
  0.72
11
  5.49
21
 -3.11
31
 -0.07
0
LINE
8
CentreLine
10
  5.49
20
 -3.11
30
 -0.07
11
  2.18
21
 -7.67
31
  5.77
0
LINE
8
CentreLine
10
  2.18
20
 -7.67
30
  5.77
11
 -0.22
21
-10.16
31
  5.22
0
LINE
8
CentreLine
10
 -0.22
20
-10.16
30
  5.22
11
 -0.22
21
-10.16
31
 -4.78
0
LINE
8
CentreLine
10
  5.49
20
 -3.11
30
 -0.07
11
  0.96
21
 -4.85
31
 -4.76
0
LINE
8
CentreLine
10
  0.96
20
 -4.85
30
 -4.76
11
  0.78
21
  5.65
31
-14.90
0
LINE
8
CentreLine
10
  0.78
20
  5.65
30
-14.90
11
  1.71
21
  5.33
31
-14.54
0
LINE
8
CentreLine
10
  1.71
20
  5.33
30
-14.54
11
-16.77
21
 -8.11
31
-24.71
0
LINE
8
CentreLine
10
  1.71
20
  5.33
30
-14.54
11
 -9.86
21
 -2.19
31
-22.84
0
LINE
8
CentreLine
10
 -9.86
20
 -2.19
30
-22.84
11
-11.95
21
  5.59
31
-18.91
0
LINE
8
CentreLine
10
  1.71
20
  5.33
30
-14.54
11
  6.21
21
 -1.10
31
-16.07
0
LINE
8
CentreLine
10
  1.71
20
  5.33
30
-14.54
11
  6.99
21
  5.42
31
-12.41
0
LINE
8
CentreLine
10
  6.99
20
  5.42
30
-12.41
11
  9.48
21
  7.29
31
-12.90
0
LINE
8
CentreLine
10
  9.48
20
  7.29
30
-12.90
11
 11.98
21
  7.33
31
-15.49
0
LINE
8
CentreLine
10
 11.98
20
  7.33
30
-15.49
11
 16.78
21
  3.16
31
-16.50
0
LINE
8
CentreLine
10
  1.71
20
  5.33
30
-14.54
11
  4.11
21
  6.60
31
-12.10
0
LINE
8
CentreLine
10
  4.11
20
  6.60
30
-12.10
11
 -1.05
21
 11.08
31
 -6.57
000
ENDSEC
000
EOF
